  0
SECTION
  2
HEADER
  9
$ACADVER
  1
AC1009
  9
$INSBASE
 10
0.0
 20
0.0
 30
0.0
  9
$EXTMIN
 10
-12.2082535873828402
 20
-5.591894470167972
 30
-0.0015258207003583
  9
$EXTMAX
 10
201.8462381799920138
 20
31.9050760024432414
 30
0.0000000349246037
  9
$LIMMIN
 10
0.0
 20
0.0
  9
$LIMMAX
 10
12.0
 20
9.0
  9
$ORTHOMODE
 70
     0
  9
$REGENMODE
 70
     1
  9
$FILLMODE
 70
     1
  9
$QTEXTMODE
 70
     0
  9
$MIRRTEXT
 70
     0
  9
$DRAGMODE
 70
     2
  9
$LTSCALE
 40
1.0
  9
$OSMODE
 70
    39
  9
$ATTMODE
 70
     1
  9
$TEXTSIZE
 40
0.2
  9
$TRACEWID
 40
0.05
  9
$TEXTSTYLE
  7
STANDARD
  9
$CLAYER
  8
OUTLINE
  9
$CELTYPE
  6
BYLAYER
  9
$CECOLOR
 62
   256
  9
$DIMSCALE
 40
1.0
  9
$DIMASZ
 40
0.18
  9
$DIMEXO
 40
0.0625
  9
$DIMDLI
 40
0.38
  9
$DIMRND
 40
0.0
  9
$DIMDLE
 40
0.0
  9
$DIMEXE
 40
0.18
  9
$DIMTP
 40
0.0
  9
$DIMTM
 40
0.0
  9
$DIMTXT
 40
0.18
  9
$DIMCEN
 40
0.09
  9
$DIMTSZ
 40
0.0
  9
$DIMTOL
 70
     0
  9
$DIMLIM
 70
     0
  9
$DIMTIH
 70
     1
  9
$DIMTOH
 70
     1
  9
$DIMSE1
 70
     0
  9
$DIMSE2
 70
     0
  9
$DIMTAD
 70
     0
  9
$DIMZIN
 70
     0
  9
$DIMBLK
  1

  9
$DIMASO
 70
     1
  9
$DIMSHO
 70
     1
  9
$DIMPOST
  1

  9
$DIMAPOST
  1

  9
$DIMALT
 70
     0
  9
$DIMALTD
 70
     2
  9
$DIMALTF
 40
25.3999999999999986
  9
$DIMLFAC
 40
1.0
  9
$DIMTOFL
 70
     0
  9
$DIMTVP
 40
0.0
  9
$DIMTIX
 70
     0
  9
$DIMSOXD
 70
     0
  9
$DIMSAH
 70
     0
  9
$DIMBLK1
  1

  9
$DIMBLK2
  1

  9
$DIMSTYLE
  2
STANDARD
  9
$DIMCLRD
 70
     0
  9
$DIMCLRE
 70
     0
  9
$DIMCLRT
 70
     0
  9
$DIMTFAC
 40
1.0
  9
$DIMGAP
 40
0.09
  9
$LUNITS
 70
     2
  9
$LUPREC
 70
     4
  9
$SKETCHINC
 40
0.1
  9
$FILLETRAD
 40
0.0
  9
$AUNITS
 70
     0
  9
$AUPREC
 70
     0
  9
$MENU
  1
.
  9
$ELEVATION
 40
0.0
  9
$PELEVATION
 40
0.0
  9
$THICKNESS
 40
0.0
  9
$LIMCHECK
 70
     0
  9
$BLIPMODE
 70
     0
  9
$CHAMFERA
 40
0.0
  9
$CHAMFERB
 40
0.0
  9
$SKPOLY
 70
     0
  9
$TDCREATE
 40
2458652.7007754631340504
  9
$TDUPDATE
 40
2458652.7061111112125218
  9
$TDINDWG
 40
0.0053356481
  9
$TDUSRTIMER
 40
0.0053356481
  9
$USRTIMER
 70
     1
  9
$ANGBASE
 50
0.0
  9
$ANGDIR
 70
     0
  9
$PDMODE
 70
     0
  9
$PDSIZE
 40
0.0
  9
$PLINEWID
 40
0.0
  9
$COORDS
 70
     1
  9
$SPLFRAME
 70
     0
  9
$SPLINETYPE
 70
     6
  9
$SPLINESEGS
 70
     8
  9
$ATTDIA
 70
     1
  9
$ATTREQ
 70
     1
  9
$HANDLING
 70
     1
  9
$HANDSEED
  5
D96
  9
$SURFTAB1
 70
     6
  9
$SURFTAB2
 70
     6
  9
$SURFTYPE
 70
     6
  9
$SURFU
 70
     6
  9
$SURFV
 70
     6
  9
$UCSNAME
  2

  9
$UCSORG
 10
0.0
 20
0.0
 30
0.0
  9
$UCSXDIR
 10
1.0
 20
0.0
 30
0.0
  9
$UCSYDIR
 10
0.0
 20
1.0
 30
0.0
  9
$PUCSNAME
  2

  9
$PUCSORG
 10
0.0
 20
0.0
 30
0.0
  9
$PUCSXDIR
 10
1.0
 20
0.0
 30
0.0
  9
$PUCSYDIR
 10
0.0
 20
1.0
 30
0.0
  9
$USERI1
 70
     0
  9
$USERI2
 70
     0
  9
$USERI3
 70
     0
  9
$USERI4
 70
     0
  9
$USERI5
 70
     0
  9
$USERR1
 40
0.0
  9
$USERR2
 40
0.0
  9
$USERR3
 40
0.0
  9
$USERR4
 40
0.0
  9
$USERR5
 40
0.0
  9
$WORLDVIEW
 70
     1
  9
$SHADEDGE
 70
     3
  9
$SHADEDIF
 70
    70
  9
$TILEMODE
 70
     1
  9
$MAXACTVP
 70
    64
  9
$PLIMCHECK
 70
     0
  9
$PEXTMIN
 10
0.0
 20
0.0
 30
0.0
  9
$PEXTMAX
 10
0.0
 20
0.0
 30
0.0
  9
$PLIMMIN
 10
0.0
 20
0.0
  9
$PLIMMAX
 10
12.0
 20
9.0
  9
$UNITMODE
 70
     0
  9
$VISRETAIN
 70
     1
  9
$PLINEGEN
 70
     0
  9
$PSLTSCALE
 70
     1
  0
ENDSEC
  0
SECTION
  2
TABLES
  0
TABLE
  2
VPORT
 70
     1
  0
VPORT
  2
*ACTIVE
 70
     0
 10
0.0
 20
0.0
 11
1.0
 21
1.0
 12
62.8517322995619878
 22
13.5163663669545109
 13
0.0
 23
0.0
 14
0.5
 24
0.5
 15
0.5
 25
0.5
 16
0.0
 26
0.0
 36
1.0
 17
0.0
 27
0.0
 37
0.0
 40
82.9017007024516488
 41
2.1163055872291898
 42
50.0
 43
0.0
 44
0.0
 50
0.0
 51
0.0
 71
     0
 72
  1000
 73
     1
 74
     3
 75
     0
 76
     0
 77
     0
 78
     0
  0
ENDTAB
  0
TABLE
  2
LTYPE
 70
     3
  0
LTYPE
  2
CONTINUOUS
 70
     0
  3
Solid line
 72
    65
 73
     0
 40
0.0
  0
ENDTAB
  0
TABLE
  2
LAYER
 70
     3
  0
LAYER
  2
0
 70
     0
 62
     7
  6
CONTINUOUS
  0
LAYER
  2
DEFAULT
 70
     0
 62
    18
  6
CONTINUOUS
  0
LAYER
  2
OUTLINE
 70
     0
 62
     1
  6
CONTINUOUS
  0
ENDTAB
  0
TABLE
  2
STYLE
 70
     2
  0
STYLE
  2
STANDARD
 70
     0
 40
0.0
 41
1.0
 50
0.0
 71
     0
 42
0.2
  3
txt
  4

  0
STYLE
  2
ANNOTATIVE
 70
     0
 40
0.0
 41
1.0
 50
0.0
 71
     0
 42
0.2
  3
txt
  4

  0
ENDTAB
  0
TABLE
  2
VIEW
 70
     2
  0
ENDTAB
  0
TABLE
  2
UCS
 70
     0
  0
ENDTAB
  0
TABLE
  2
APPID
 70
    10
  0
APPID
  2
ACAD
 70
     0
  0
APPID
  2
ACADANNOPO
 70
     0
  0
APPID
  2
ACADANNOTATIVE
 70
     0
  0
APPID
  2
ACAD_DSTYLE_DIMJAG
 70
     0
  0
APPID
  2
ACAD_DSTYLE_DIMTALN
 70
     0
  0
APPID
  2
ACAD_MLEADERVER
 70
     0
  0
APPID
  2
ACAD_NAV_VCDISPLAY
 70
     0
  0
APPID
  2
ACAD_EXEMPT_FROM_CAD_STANDARDS
 70
     0
  0
APPID
  2
ACAECLAYERSTANDARD
 70
     0
  0
APPID
  2
ACCMTRANSPARENCY
 70
     0
  0
ENDTAB
  0
TABLE
  2
DIMSTYLE
 70
     3
  0
DIMSTYLE
  2
STANDARD
 70
     0
  3

  4

  5

  6

  7

 40
1.0
 41
0.18
 42
0.0625
 43
0.38
 44
0.18
 45
0.0
 46
0.0
 47
0.0
 48
0.0
140
0.18
141
0.09
142
0.0
143
25.3999999999999986
144
1.0
145
0.0
146
1.0
147
0.09
 71
     0
 72
     0
 73
     1
 74
     1
 75
     0
 76
     0
 77
     0
 78
     0
170
     0
171
     2
172
     0
173
     0
174
     0
175
     0
176
     0
177
     0
178
     0
  0
DIMSTYLE
  2
ANNOTATIVE
 70
     0
  3

  4

  5

  6

  7

 40
0.0
 41
0.18
 42
0.0625
 43
0.38
 44
0.18
 45
0.0
 46
0.0
 47
0.0
 48
0.0
140
0.18
141
0.09
142
0.0
143
25.3999999999999986
144
1.0
145
0.0
146
1.0
147
0.09
 71
     0
 72
     0
 73
     1
 74
     1
 75
     0
 76
     0
 77
     0
 78
     0
170
     0
171
     2
172
     0
173
     0
174
     0
175
     0
176
     0
177
     0
178
     0
  0
ENDTAB
  0
ENDSEC
  0
SECTION
  2
BLOCKS
  0
BLOCK
  8
0
  2
$MODEL_SPACE
 70
     0
 10
0.0
 20
0.0
 30
0.0
  3
$MODEL_SPACE
  1

  0
ENDBLK
  5
21
  8
0
  0
BLOCK
 67
     1
  8
0
  2
$PAPER_SPACE
 70
     0
 10
0.0
 20
0.0
 30
0.0
  3
$PAPER_SPACE
  1

  0
ENDBLK
  5
5B
 67
     1
  8
0
  0
BLOCK
  8
0
  2
A$C36C7203F
 70
     0
 10
0.0
 20
0.0
 30
0.0
  3
A$C36C7203F
  1

  0
LINE
  5
5CC
  8
DEFAULT
 10
4.2000026363377279
 20
0.0000015413447727
 30
0.0
 11
4.2000026363377279
 21
3.8000015413447268
 31
0.0
  0
LINE
  5
5CD
  8
DEFAULT
 10
2.100002636337706
 20
3.8000015413447268
 30
0.0
 11
2.100002636337706
 21
0.0000015413447727
 31
0.0
  0
LINE
  5
5CE
  8
DEFAULT
 10
6.3000026363377506
 20
0.0000015413447727
 30
0.0
 11
6.3000026363377506
 21
3.8000015413447268
 31
0.0
  0
LINE
  5
5CF
  8
DEFAULT
 10
8.4000026363377174
 20
0.0000015413447727
 30
0.0
 11
8.4000026363377174
 21
3.8000015413447268
 31
0.0
  0
LINE
  5
5D0
  8
DEFAULT
 10
10.5000026363377401
 20
3.8000015413447268
 30
0.0
 11
10.5000026363377401
 21
0.0000015413447727
 31
0.0
  0
LINE
  5
5D1
  8
DEFAULT
 10
12.6000026363377593
 20
3.8000015413447268
 30
0.0
 11
12.6000026363377593
 21
0.0000015413447727
 31
0.0
  0
LINE
  5
5D2
  8
DEFAULT
 10
16.8000026363378083
 20
0.0000015413447727
 30
0.0
 11
16.8000026363378083
 21
3.8000015413447268
 31
0.0
  0
LINE
  5
5D3
  8
DEFAULT
 10
14.7000026363377803
 20
3.8000015413447268
 30
0.0
 11
14.7000026363377803
 21
0.0000015413447727
 31
0.0
  0
LINE
  5
5D4
  8
DEFAULT
 10
18.9000026363377707
 20
0.0000015413447727
 30
0.0
 11
18.9000026363377707
 21
3.8000015413447268
 31
0.0
  0
POLYLINE
  5
5D5
  8
DEFAULT
 66
     1
 10
0.0
 20
0.0
 30
0.0
 70
     1
  0
VERTEX
  5
C64
  8
DEFAULT
 10
0.9200026363376991
 20
2.1000015413446809
 30
0.0
  0
VERTEX
  5
C65
  8
DEFAULT
 10
0.7000026363377287
 20
0.0000015413447727
 30
0.0
  0
VERTEX
  5
C66
  8
DEFAULT
 10
0.0000026363377401
 20
0.0000015413447727
 30
0.0
  0
VERTEX
  5
C67
  8
DEFAULT
 10
0.0000026363377401
 20
3.8000015413447268
 30
0.0
  0
VERTEX
  5
C68
  8
DEFAULT
 10
21.0000026363378005
 20
3.8000015413447268
 30
0.0
  0
VERTEX
  5
C69
  8
DEFAULT
 10
21.0000026363378005
 20
0.0000015413447727
 30
0.0
  0
VERTEX
  5
C6A
  8
DEFAULT
 10
20.3000026363378083
 20
0.0000015413447727
 30
0.0
  0
VERTEX
  5
C6B
  8
DEFAULT
 10
20.080002636337781
 20
2.1000015413446809
 30
0.0
  0
VERTEX
  5
C6C
  8
DEFAULT
 10
20.080002636337781
 20
2.200001541344704
 30
0.0
  0
VERTEX
  5
C6D
  8
DEFAULT
 10
20.1000026363377593
 20
2.200001541344704
 30
0.0
  0
VERTEX
  5
C6E
  8
DEFAULT
 10
20.1000026363377593
 20
3.0000015413447718
 30
0.0
  0
VERTEX
  5
C6F
  8
DEFAULT
 10
19.8000026363378083
 20
3.0000015413447718
 30
0.0
  0
VERTEX
  5
C70
  8
DEFAULT
 10
19.8000026363378083
 20
2.200001541344704
 30
0.0
  0
VERTEX
  5
C71
  8
DEFAULT
 10
19.8200026363377901
 20
2.200001541344704
 30
0.0
  0
VERTEX
  5
C72
  8
DEFAULT
 10
19.8200026363377901
 20
2.1000015413446809
 30
0.0
  0
VERTEX
  5
C73
  8
DEFAULT
 10
19.6000026363377593
 20
0.0000015413447727
 30
0.0
  0
VERTEX
  5
C74
  8
DEFAULT
 10
18.2000026363377785
 20
0.0000015413447727
 30
0.0
  0
VERTEX
  5
C75
  8
DEFAULT
 10
17.9800026363377583
 20
2.1000015413446809
 30
0.0
  0
VERTEX
  5
C76
  8
DEFAULT
 10
17.9800026363377583
 20
2.200001541344704
 30
0.0
  0
VERTEX
  5
C77
  8
DEFAULT
 10
18.0000026363378005
 20
2.200001541344704
 30
0.0
  0
VERTEX
  5
C78
  8
DEFAULT
 10
18.0000026363378005
 20
3.0000015413447718
 30
0.0
  0
VERTEX
  5
C79
  8
DEFAULT
 10
17.7000026363377785
 20
3.0000015413447718
 30
0.0
  0
VERTEX
  5
C7A
  8
DEFAULT
 10
17.7000026363377785
 20
2.200001541344704
 30
0.0
  0
VERTEX
  5
C7B
  8
DEFAULT
 10
17.720002636337771
 20
2.200001541344704
 30
0.0
  0
VERTEX
  5
C7C
  8
DEFAULT
 10
17.720002636337771
 20
2.1000015413446809
 30
0.0
  0
VERTEX
  5
C7D
  8
DEFAULT
 10
17.5000026363377899
 20
0.0000015413447727
 30
0.0
  0
VERTEX
  5
C7E
  8
DEFAULT
 10
16.1000026363377593
 20
0.0000015413447727
 30
0.0
  0
VERTEX
  5
C7F
  8
DEFAULT
 10
15.8800026363377906
 20
2.1000015413446809
 30
0.0
  0
VERTEX
  5
C80
  8
DEFAULT
 10
15.8800026363377906
 20
2.200001541344704
 30
0.0
  0
VERTEX
  5
C81
  8
DEFAULT
 10
15.9000026363377707
 20
2.200001541344704
 30
0.0
  0
VERTEX
  5
C82
  8
DEFAULT
 10
15.9000026363377707
 20
3.0000015413447718
 30
0.0
  0
VERTEX
  5
C83
  8
DEFAULT
 10
15.6000026363377593
 20
3.0000015413447718
 30
0.0
  0
VERTEX
  5
C84
  8
DEFAULT
 10
15.6000026363377593
 20
2.200001541344704
 30
0.0
  0
VERTEX
  5
C85
  8
DEFAULT
 10
15.6200026363377393
 20
2.200001541344704
 30
0.0
  0
VERTEX
  5
C86
  8
DEFAULT
 10
15.6200026363377393
 20
2.1000015413446809
 30
0.0
  0
VERTEX
  5
C87
  8
DEFAULT
 10
15.4000026363377707
 20
0.0000015413447727
 30
0.0
  0
VERTEX
  5
C88
  8
DEFAULT
 10
14.0000026363377401
 20
0.0000015413447727
 30
0.0
  0
VERTEX
  5
C89
  8
DEFAULT
 10
13.7800026363377697
 20
2.1000015413446809
 30
0.0
  0
VERTEX
  5
C8A
  8
DEFAULT
 10
13.7800026363377697
 20
2.200001541344704
 30
0.0
  0
VERTEX
  5
C8B
  8
DEFAULT
 10
13.8000026363377497
 20
2.200001541344704
 30
0.0
  0
VERTEX
  5
C8C
  8
DEFAULT
 10
13.8000026363377497
 20
3.0000015413447718
 30
0.0
  0
VERTEX
  5
C8D
  8
DEFAULT
 10
13.5000026363377401
 20
3.0000015413447718
 30
0.0
  0
VERTEX
  5
C8E
  8
DEFAULT
 10
13.5000026363377401
 20
2.200001541344704
 30
0.0
  0
VERTEX
  5
C8F
  8
DEFAULT
 10
13.5200026363377201
 20
2.200001541344704
 30
0.0
  0
VERTEX
  5
C90
  8
DEFAULT
 10
13.5200026363377201
 20
2.1000015413446809
 30
0.0
  0
VERTEX
  5
C91
  8
DEFAULT
 10
13.3000026363377497
 20
0.0000015413447727
 30
0.0
  0
VERTEX
  5
C92
  8
DEFAULT
 10
11.9000026363377192
 20
0.0000015413447727
 30
0.0
  0
VERTEX
  5
C93
  8
DEFAULT
 10
11.6800026363377398
 20
2.1000015413446809
 30
0.0
  0
VERTEX
  5
C94
  8
DEFAULT
 10
11.6800026363377398
 20
2.200001541344704
 30
0.0
  0
VERTEX
  5
C95
  8
DEFAULT
 10
11.7000026363377803
 20
2.200001541344704
 30
0.0
  0
VERTEX
  5
C96
  8
DEFAULT
 10
11.7000026363377803
 20
3.0000015413447718
 30
0.0
  0
VERTEX
  5
C97
  8
DEFAULT
 10
11.4000026363377192
 20
3.0000015413447718
 30
0.0
  0
VERTEX
  5
C98
  8
DEFAULT
 10
11.4000026363377192
 20
2.200001541344704
 30
0.0
  0
VERTEX
  5
C99
  8
DEFAULT
 10
11.4200026363377507
 20
2.200001541344704
 30
0.0
  0
VERTEX
  5
C9A
  8
DEFAULT
 10
11.4200026363377507
 20
2.1000015413446809
 30
0.0
  0
VERTEX
  5
C9B
  8
DEFAULT
 10
11.2000026363377803
 20
0.0000015413447727
 30
0.0
  0
VERTEX
  5
C9C
  8
DEFAULT
 10
9.8000026363377515
 20
0.0000015413447727
 30
0.0
  0
VERTEX
  5
C9D
  8
DEFAULT
 10
9.580002636337781
 20
2.1000015413446809
 30
0.0
  0
VERTEX
  5
C9E
  8
DEFAULT
 10
9.580002636337781
 20
2.200001541344704
 30
0.0
  0
VERTEX
  5
C9F
  8
DEFAULT
 10
9.6000026363377629
 20
2.200001541344704
 30
0.0
  0
VERTEX
  5
CA0
  8
DEFAULT
 10
9.6000026363377629
 20
3.0000015413447718
 30
0.0
  0
VERTEX
  5
CA1
  8
DEFAULT
 10
9.3000026363377515
 20
3.0000015413447718
 30
0.0
  0
VERTEX
  5
CA2
  8
DEFAULT
 10
9.3000026363377515
 20
2.200001541344704
 30
0.0
  0
VERTEX
  5
CA3
  8
DEFAULT
 10
9.3200026363377333
 20
2.200001541344704
 30
0.0
  0
VERTEX
  5
CA4
  8
DEFAULT
 10
9.3200026363377333
 20
2.1000015413446809
 30
0.0
  0
VERTEX
  5
CA5
  8
DEFAULT
 10
9.1000026363377629
 20
0.0000015413447727
 30
0.0
  0
VERTEX
  5
CA6
  8
DEFAULT
 10
7.7000026363377279
 20
0.0000015413447727
 30
0.0
  0
VERTEX
  5
CA7
  8
DEFAULT
 10
7.4800026363377583
 20
2.1000015413446809
 30
0.0
  0
VERTEX
  5
CA8
  8
DEFAULT
 10
7.4800026363377583
 20
2.200001541344704
 30
0.0
  0
VERTEX
  5
CA9
  8
DEFAULT
 10
7.5000026363377401
 20
2.200001541344704
 30
0.0
  0
VERTEX
  5
CAA
  8
DEFAULT
 10
7.5000026363377401
 20
3.0000015413447718
 30
0.0
  0
VERTEX
  5
CAB
  8
DEFAULT
 10
7.2000026363377279
 20
3.0000015413447718
 30
0.0
  0
VERTEX
  5
CAC
  8
DEFAULT
 10
7.2000026363377279
 20
2.200001541344704
 30
0.0
  0
VERTEX
  5
CAD
  8
DEFAULT
 10
7.2200026363377097
 20
2.200001541344704
 30
0.0
  0
VERTEX
  5
CAE
  8
DEFAULT
 10
7.2200026363377097
 20
2.1000015413446809
 30
0.0
  0
VERTEX
  5
CAF
  8
DEFAULT
 10
7.0000026363377401
 20
0.0000015413447727
 30
0.0
  0
VERTEX
  5
CB0
  8
DEFAULT
 10
5.600002636337706
 20
0.0000015413447727
 30
0.0
  0
VERTEX
  5
CB1
  8
DEFAULT
 10
5.3800026363377347
 20
2.1000015413446809
 30
0.0
  0
VERTEX
  5
CB2
  8
DEFAULT
 10
5.3800026363377347
 20
2.200001541344704
 30
0.0
  0
VERTEX
  5
CB3
  8
DEFAULT
 10
5.4000026363377174
 20
2.200001541344704
 30
0.0
  0
VERTEX
  5
CB4
  8
DEFAULT
 10
5.4000026363377174
 20
3.0000015413447718
 30
0.0
  0
VERTEX
  5
CB5
  8
DEFAULT
 10
5.100002636337706
 20
3.0000015413447718
 30
0.0
  0
VERTEX
  5
CB6
  8
DEFAULT
 10
5.100002636337706
 20
2.200001541344704
 30
0.0
  0
VERTEX
  5
CB7
  8
DEFAULT
 10
5.1200026363377438
 20
2.200001541344704
 30
0.0
  0
VERTEX
  5
CB8
  8
DEFAULT
 10
5.1200026363377438
 20
2.1000015413446809
 30
0.0
  0
VERTEX
  5
CB9
  8
DEFAULT
 10
4.9000026363377174
 20
0.0000015413447727
 30
0.0
  0
VERTEX
  5
CBA
  8
DEFAULT
 10
3.5000026363377401
 20
0.0000015413447727
 30
0.0
  0
VERTEX
  5
CBB
  8
DEFAULT
 10
3.2800026363377119
 20
2.1000015413446809
 30
0.0
  0
VERTEX
  5
CBC
  8
DEFAULT
 10
3.2800026363377119
 20
2.200001541344704
 30
0.0
  0
VERTEX
  5
CBD
  8
DEFAULT
 10
3.3000026363376942
 20
2.200001541344704
 30
0.0
  0
VERTEX
  5
CBE
  8
DEFAULT
 10
3.3000026363376942
 20
3.0000015413447718
 30
0.0
  0
VERTEX
  5
CBF
  8
DEFAULT
 10
3.0000026363377401
 20
3.0000015413447718
 30
0.0
  0
VERTEX
  5
CC0
  8
DEFAULT
 10
3.0000026363377401
 20
2.200001541344704
 30
0.0
  0
VERTEX
  5
CC1
  8
DEFAULT
 10
3.020002636337721
 20
2.200001541344704
 30
0.0
  0
VERTEX
  5
CC2
  8
DEFAULT
 10
3.020002636337721
 20
2.1000015413446809
 30
0.0
  0
VERTEX
  5
CC3
  8
DEFAULT
 10
2.8000026363376942
 20
0.0000015413447727
 30
0.0
  0
VERTEX
  5
CC4
  8
DEFAULT
 10
1.4000026363377169
 20
0.0000015413447727
 30
0.0
  0
VERTEX
  5
CC5
  8
DEFAULT
 10
1.1800026363376901
 20
2.1000015413446809
 30
0.0
  0
VERTEX
  5
CC6
  8
DEFAULT
 10
1.1800026363376901
 20
2.200001541344704
 30
0.0
  0
VERTEX
  5
CC7
  8
DEFAULT
 10
1.2000026363377281
 20
2.200001541344704
 30
0.0
  0
VERTEX
  5
CC8
  8
DEFAULT
 10
1.2000026363377281
 20
3.0000015413447718
 30
0.0
  0
VERTEX
  5
CC9
  8
DEFAULT
 10
0.9000026363377173
 20
3.0000015413447718
 30
0.0
  0
VERTEX
  5
CCA
  8
DEFAULT
 10
0.9000026363377173
 20
2.200001541344704
 30
0.0
  0
VERTEX
  5
CCB
  8
DEFAULT
 10
0.9200026363376991
 20
2.200001541344704
 30
0.0
  0
SEQEND
  5
CCC
  8
DEFAULT
  0
ENDBLK
  5
5D9
  8
0
  0
ENDSEC
  0
SECTION
  2
ENTITIES
  0
POLYLINE
  5
202
  8
DEFAULT
 66
     1
 10
0.0
 20
0.0
 30
0.0
 70
     1
  0
VERTEX
  5
694
  8
DEFAULT
 10
18.4275986006674692
 20
21.9345824439281216
 30
0.0
 42
0.1730357107767622
  0
VERTEX
  5
695
  8
DEFAULT
 10
16.5649975840716195
 20
22.7060970462920508
 30
0.0
  0
VERTEX
  5
696
  8
DEFAULT
 10
16.5649975840716195
 20
21.7042164604942194
 30
0.0
 42
0.0375528832139126
  0
VERTEX
  5
697
  8
DEFAULT
 10
16.2649975840716188
 20
21.7042164604942194
 30
0.0
  0
VERTEX
  5
698
  8
DEFAULT
 10
16.2649975840716188
 20
22.7060970462920508
 30
0.0
 42
0.1730357107767621
  0
VERTEX
  5
699
  8
DEFAULT
 10
14.4023965674757708
 20
21.9345824439281216
 30
0.0
  0
VERTEX
  5
69A
  8
DEFAULT
 10
15.1108331236325508
 20
21.2261458877713594
 30
0.0
 42
0.0375528832139122
  0
VERTEX
  5
69B
  8
DEFAULT
 10
14.8987010892765905
 20
21.0140138534153706
 30
0.0
  0
VERTEX
  5
69C
  8
DEFAULT
 10
14.1902645331197999
 20
21.7224504095721898
 30
0.0
 42
0.1730357107767613
  0
VERTEX
  5
69D
  8
DEFAULT
 10
13.4187499307558902
 20
19.8598493929763116
 30
0.0
  0
VERTEX
  5
69E
  8
DEFAULT
 10
14.4206305165537003
 20
19.8598493929763116
 30
0.0
 42
0.0375528832139128
  0
VERTEX
  5
69F
  8
DEFAULT
 10
14.4206305165537003
 20
19.5598493929763002
 30
0.0
  0
VERTEX
  5
6A0
  8
DEFAULT
 10
13.4187499307558902
 20
19.5598493929763002
 30
0.0
 42
0.1730357107767616
  0
VERTEX
  5
6A1
  8
DEFAULT
 10
14.1902645331198105
 20
17.6972483763804789
 30
0.0
  0
VERTEX
  5
6A2
  8
DEFAULT
 10
14.8987010892765905
 20
18.4056849325372411
 30
0.0
 42
0.0375528832139128
  0
VERTEX
  5
6A3
  8
DEFAULT
 10
15.1108331236325597
 20
18.1935528981812986
 30
0.0
  0
VERTEX
  5
6A4
  8
DEFAULT
 10
14.4023965674757708
 20
17.4851163420244902
 30
0.0
 42
0.1730357107767614
  0
VERTEX
  5
6A5
  8
DEFAULT
 10
16.2649975840716188
 20
16.7136017396606107
 30
0.0
  0
VERTEX
  5
6A6
  8
DEFAULT
 10
16.2649975840716188
 20
17.7154823254583889
 30
0.0
 42
0.0375528832139124
  0
VERTEX
  5
6A7
  8
DEFAULT
 10
16.5649975840716195
 20
17.7154823254583889
 30
0.0
  0
VERTEX
  5
6A8
  8
DEFAULT
 10
16.5649975840716195
 20
16.7136017396606107
 30
0.0
 42
0.173035710776762
  0
VERTEX
  5
6A9
  8
DEFAULT
 10
18.4275986006674692
 20
17.4851163420244902
 30
0.0
  0
VERTEX
  5
6AA
  8
DEFAULT
 10
17.7191620445106786
 20
18.1935528981812986
 30
0.0
 42
0.0375528832139122
  0
VERTEX
  5
6AB
  8
DEFAULT
 10
17.9312940788666495
 20
18.4056849325372411
 30
0.0
  0
VERTEX
  5
6AC
  8
DEFAULT
 10
18.6397306350234402
 20
17.6972483763804789
 30
0.0
 42
0.1730357107767617
  0
VERTEX
  5
6AD
  8
DEFAULT
 10
19.411245237387341
 20
19.5598493929763002
 30
0.0
  0
VERTEX
  5
6AE
  8
DEFAULT
 10
18.4093646515895415
 20
19.5598493929763002
 30
0.0
 42
0.0375528832139133
  0
VERTEX
  5
6AF
  8
DEFAULT
 10
18.4093646515895415
 20
19.8598493929763116
 30
0.0
  0
VERTEX
  5
6B0
  8
DEFAULT
 10
19.411245237387341
 20
19.8598493929763116
 30
0.0
 42
0.1730357107767612
  0
VERTEX
  5
6B1
  8
DEFAULT
 10
18.6397306350234402
 20
21.7224504095721898
 30
0.0
  0
VERTEX
  5
6B2
  8
DEFAULT
 10
17.9312940788666495
 20
21.0140138534153706
 30
0.0
 42
0.0375528832139131
  0
VERTEX
  5
6B3
  8
DEFAULT
 10
17.7191620445106786
 20
21.2261458877713594
 30
0.0
  0
SEQEND
  5
6B4
  8
DEFAULT
  0
TEXT
  5
203
  8
DEFAULT
 10
21.2297844142632499
 20
17.8813260061551382
 30
0.0
 40
2.6579234904193072
  1
100
  0
TEXT
  5
204
  8
DEFAULT
 10
49.7704589372658717
 20
18.3375849221974612
 30
0.0
 40
2.6579234904193072
  1
90
  0
POLYLINE
  5
205
  8
DEFAULT
 66
     1
 10
0.0
 20
0.0
 30
0.0
 70
     1
  0
VERTEX
  5
6B5
  8
DEFAULT
 10
42.9732793111694775
 20
19.4627908655563004
 30
0.0
  0
VERTEX
  5
6B6
  8
DEFAULT
 10
41.9702645241358709
 20
19.4627908655563004
 30
0.0
 42
-0.1678825976591862
  0
VERTEX
  5
6B7
  8
DEFAULT
 10
42.5951123461492998
 20
20.9713069518804716
 30
0.0
  0
VERTEX
  5
6B8
  8
DEFAULT
 10
43.3043509036911729
 20
20.2620683943385913
 30
0.0
 42
-0.0501256289337988
  0
VERTEX
  5
6B9
  8
DEFAULT
 10
43.5164829380471332
 20
20.47420042869458
 30
0.0
  0
VERTEX
  5
6BA
  8
DEFAULT
 10
42.8072443805052671
 20
21.1834389862363999
 30
0.0
 42
-0.1678825976591851
  0
VERTEX
  5
6BB
  8
DEFAULT
 10
44.3157604668294098
 20
21.8082868082498713
 30
0.0
  0
VERTEX
  5
6BC
  8
DEFAULT
 10
44.3157604668294169
 20
20.8052720212162292
 30
0.0
 42
-0.0501256289337989
  0
VERTEX
  5
6BD
  8
DEFAULT
 10
44.615760466829407
 20
20.8052720212162292
 30
0.0
  0
VERTEX
  5
6BE
  8
DEFAULT
 10
44.615760466829407
 20
21.8082868082498713
 30
0.0
 42
-0.1678825976591859
  0
VERTEX
  5
6BF
  8
DEFAULT
 10
46.1242765531535568
 20
21.1834389862363999
 30
0.0
  0
VERTEX
  5
6C0
  8
DEFAULT
 10
45.4150379956117121
 20
20.47420042869458
 30
0.0
 42
-0.0501256289338005
  0
VERTEX
  5
6C1
  8
DEFAULT
 10
45.6271700299676795
 20
20.2620683943385913
 30
0.0
  0
VERTEX
  5
6C2
  8
DEFAULT
 10
46.3364085875095313
 20
20.9713069518804716
 30
0.0
 42
-0.1678825976591853
  0
VERTEX
  5
6C3
  8
DEFAULT
 10
46.9612564095229814
 20
19.4627908655563004
 30
0.0
  0
VERTEX
  5
6C4
  8
DEFAULT
 10
45.9582416224893535
 20
19.4627908655563004
 30
0.0
 42
-0.0501256289338009
  0
VERTEX
  5
6C5
  8
DEFAULT
 10
45.9582416224893535
 20
19.1627908655562891
 30
0.0
  0
VERTEX
  5
6C6
  8
DEFAULT
 10
46.9612564095229814
 20
19.1627908655562891
 30
0.0
 42
-0.167882597659186
  0
VERTEX
  5
6C7
  8
DEFAULT
 10
46.3364085875095313
 20
17.654274779232189
 30
0.0
  0
VERTEX
  5
6C8
  8
DEFAULT
 10
45.6271700299676795
 20
18.3635133367740089
 30
0.0
 42
-0.0501256289337993
  0
VERTEX
  5
6C9
  8
DEFAULT
 10
45.4150379956117121
 20
18.1513813024180806
 30
0.0
  0
VERTEX
  5
6CA
  8
DEFAULT
 10
46.1242765531535568
 20
17.4421427448762003
 30
0.0
 42
-0.1678825976591862
  0
VERTEX
  5
6CB
  8
DEFAULT
 10
44.615760466829407
 20
16.8172949228627289
 30
0.0
  0
VERTEX
  5
6CC
  8
DEFAULT
 10
44.615760466829407
 20
17.820309709896371
 30
0.0
 42
-0.0501256289337996
  0
VERTEX
  5
6CD
  8
DEFAULT
 10
44.3157604668294098
 20
17.820309709896371
 30
0.0
  0
VERTEX
  5
6CE
  8
DEFAULT
 10
44.3157604668294169
 20
16.8172949228627289
 30
0.0
 42
-0.1678825976591857
  0
VERTEX
  5
6CF
  8
DEFAULT
 10
42.8072443805052671
 20
17.4421427448762003
 30
0.0
  0
VERTEX
  5
6D0
  8
DEFAULT
 10
43.5164829380471332
 20
18.1513813024180806
 30
0.0
 42
-0.0501256289338002
  0
VERTEX
  5
6D1
  8
DEFAULT
 10
43.3043509036911729
 20
18.3635133367740089
 30
0.0
  0
VERTEX
  5
6D2
  8
DEFAULT
 10
42.5951123461492998
 20
17.654274779232189
 30
0.0
 42
-0.1678825976591857
  0
VERTEX
  5
6D3
  8
DEFAULT
 10
41.9702645241358567
 20
19.1627908655562891
 30
0.0
  0
VERTEX
  5
6D4
  8
DEFAULT
 10
42.9732793111694775
 20
19.1627908655562891
 30
0.0
 42
-0.0501256289338002
  0
SEQEND
  5
6D5
  8
DEFAULT
  0
LINE
  5
36C
  8
DEFAULT
 10
94.4957916117302261
 20
17.2063440664315088
 30
0.0
 11
94.9804760321630539
 21
15.7146368458918193
 31
0.0
  0
LINE
  5
36D
  8
DEFAULT
 10
94.9804760321630539
 20
15.7146368458918193
 30
0.0
 11
86.4061078607214341
 21
15.7146368458919898
 31
0.0
  0
POLYLINE
  5
36E
  8
DEFAULT
 66
     1
 10
0.0
 20
0.0
 30
0.0
  0
VERTEX
  5
36F
  8
DEFAULT
 10
94.1177696325800071
 20
17.3989560691737495
 30
0.0
  0
VERTEX
  5
370
  8
DEFAULT
 10
93.1515149510246374
 20
17.0850013050819598
 30
0.0
  0
VERTEX
  5
371
  8
DEFAULT
 10
93.2442199392141333
 20
16.7996843144122998
 30
0.0
  0
VERTEX
  5
372
  8
DEFAULT
 10
94.2104746211419979
 20
17.1136390786250807
 30
0.0
  0
SEQEND
  5
373
  8
DEFAULT
  0
POLYLINE
  5
374
  8
DEFAULT
 66
     1
 10
0.0
 20
0.0
 30
0.0
  0
VERTEX
  5
375
  8
DEFAULT
 10
94.0065177143637243
 20
18.7121762631247108
 30
0.0
  0
VERTEX
  5
376
  8
DEFAULT
 10
94.4030866235407871
 20
17.4916610571011901
 30
0.0
  0
SEQEND
  5
377
  8
DEFAULT
  0
LINE
  5
378
  8
DEFAULT
 10
86.4061078607214768
 20
19.7146368458919916
 30
0.0
 11
93.6807989540902781
 21
19.7146368458918388
 31
0.0
  0
LINE
  5
379
  8
DEFAULT
 10
93.6807989540902781
 20
19.7146368458918388
 30
0.0
 11
93.9138127261741715
 21
18.9974932537944916
 31
0.0
  0
LINE
  5
37A
  8
DEFAULT
 10
93.6807989540902781
 20
19.7146368458918388
 30
0.0
 11
93.9138127261741715
 21
18.9974932537944916
 31
0.0
  0
LINE
  5
37B
  8
DEFAULT
 10
94.0065177143637243
 20
18.7121762631247108
 30
0.0
 11
94.4030866235407871
 21
17.4916610571011901
 31
0.0
  0
LINE
  5
37C
  8
DEFAULT
 10
94.1177696325800071
 20
17.3989560691737495
 30
0.0
 11
93.1515149510246374
 21
17.0850013050819598
 31
0.0
  0
LINE
  5
37D
  8
DEFAULT
 10
93.1515149510246374
 20
17.0850013050819598
 30
0.0
 11
93.2442199392141333
 21
16.7996843144122998
 31
0.0
  0
LINE
  5
37E
  8
DEFAULT
 10
93.2442199392141333
 20
16.7996843144122998
 30
0.0
 11
94.2104746211419979
 21
17.1136390786250807
 31
0.0
  0
LINE
  5
37F
  8
DEFAULT
 10
94.4957916117302261
 20
17.2063440664315088
 30
0.0
 11
94.9804760321630539
 21
15.7146368458918193
 31
0.0
  0
LINE
  5
380
  8
DEFAULT
 10
90.6154566519156788
 20
17.9257938075355092
 30
0.0
 11
91.1860906332549348
 21
18.1112037839145295
 31
0.0
  0
LINE
  5
381
  8
DEFAULT
 10
91.4714076239247191
 20
18.2039087721040787
 30
0.0
 11
93.9138127261741715
 21
18.99749325379452
 31
0.0
  0
LINE
  5
382
  8
DEFAULT
 10
94.0065177143637243
 20
18.7121762631247393
 30
0.0
 11
91.5641126121141156
 21
17.9185917814343689
 31
0.0
  0
LINE
  5
383
  8
DEFAULT
 10
91.2787956214444733
 20
17.8258867932448517
 30
0.0
 11
90.7081616401051747
 21
17.6404768168658492
 31
0.0
  0
LINE
  5
384
  8
DEFAULT
 10
90.7081616401051747
 20
17.6404768168658492
 30
0.0
 11
90.6154566519156788
 21
17.9257938075355092
 31
0.0
  0
LINE
  5
385
  8
DEFAULT
 10
92.9085912738006385
 20
24.1516664593885402
 30
0.0
 11
92.4025918097746057
 21
22.5943770888987991
 31
0.0
  0
LINE
  5
386
  8
DEFAULT
 10
92.0221691080780033
 20
22.7179835938473502
 30
0.0
 11
91.7361529263699254
 21
22.8109156413355016
 31
0.0
  0
LINE
  5
387
  8
DEFAULT
 10
91.7361529263699254
 20
22.8109156413355016
 30
0.0
 11
91.6434480320700544
 21
22.5255986201592613
 31
0.0
  0
LINE
  5
388
  8
DEFAULT
 10
91.6434480320700544
 20
22.5255986201592613
 30
0.0
 11
91.9294571252857367
 21
22.4326688585724092
 31
0.0
  0
LINE
  5
389
  8
DEFAULT
 10
92.3098829012177049
 20
22.3090613317578494
 30
0.0
 11
91.9132615884563933
 21
21.0885631542186012
 31
0.0
  0
LINE
  5
38A
  8
DEFAULT
 10
91.820544349895556
 20
20.8032501439262205
 30
0.0
 11
91.6088013373085346
 21
20.1516664981310214
 31
0.0
  0
LINE
  5
38B
  8
DEFAULT
 10
92.9085912738006385
 20
24.1516664593885402
 30
0.0
 11
92.4025918097746057
 21
22.5943770888987991
 31
0.0
  0
LINE
  5
38C
  8
DEFAULT
 10
92.117274780491357
 20
22.687081968588469
 30
0.0
 11
91.7361529263699254
 21
22.8109156413355016
 31
0.0
  0
LINE
  5
38D
  8
DEFAULT
 10
92.3854296239826454
 20
22.5789241615158289
 30
0.0
 11
92.1220763126310089
 21
22.6644926153373412
 31
0.0
  0
LINE
  5
38E
  8
DEFAULT
 10
91.7361529263699254
 20
22.8109156413355016
 30
0.0
 11
91.6434480320700544
 21
22.5255986201592613
 31
0.0
  0
LINE
  5
38F
  8
DEFAULT
 10
91.6434480320700544
 20
22.5255986201592613
 30
0.0
 11
92.0245627990114485
 21
22.4017672271399384
 31
0.0
  0
LINE
  5
390
  8
DEFAULT
 10
92.0417249825632666
 20
22.4172201488398812
 30
0.0
 11
92.3050821405148554
 21
22.331650429270951
 31
0.0
  0
LINE
  5
391
  8
DEFAULT
 10
92.3098829012177049
 20
22.3090613317578494
 30
0.0
 11
91.9132615884563933
 21
21.0885631542186012
 31
0.0
  0
LINE
  5
392
  8
DEFAULT
 10
91.820544349895556
 20
20.8032501439262205
 30
0.0
 11
91.6088013373085346
 21
20.1516664981310214
 31
0.0
  0
LINE
  5
393
  8
DEFAULT
 10
89.8834562123641945
 20
21.7480852958027491
 30
0.0
 11
89.7907513180644372
 21
21.4627682746266792
 31
0.0
  0
LINE
  5
394
  8
DEFAULT
 10
89.7907513180644372
 20
21.4627682746266792
 30
0.0
 11
90.0760683392406349
 21
21.3700633803268794
 31
0.0
  0
LINE
  5
395
  8
DEFAULT
 10
90.3613853604168753
 20
21.2773584860270795
 30
0.0
 11
90.6142144008295531
 21
21.1952095508855791
 31
0.0
  0
LINE
  5
396
  8
DEFAULT
 10
90.093230522792453
 20
21.3855163020267582
 30
0.0
 11
90.356583829437966
 21
21.2999478338175017
 31
0.0
  0
LINE
  5
397
  8
DEFAULT
 10
90.7069191482324868
 20
21.4805266197913589
 30
0.0
 11
90.454090254716732
 21
21.5626755072032097
 31
0.0
  0
LINE
  5
398
  8
DEFAULT
 10
90.1687732335404348
 20
21.65538040150307
 30
0.0
 11
89.8834562123641945
 21
21.7480852958027491
 31
0.0
  0
LINE
  5
399
  8
DEFAULT
 10
90.4369280711649139
 20
21.5472225855033415
 30
0.0
 11
90.1735747645192873
 21
21.6327910537126513
 31
0.0
  0
LINE
  5
39A
  8
DEFAULT
 10
76.2026512237040947
 20
24.7015387094027687
 30
0.0
 11
77.1686689066083318
 21
24.7015383068293488
 31
0.0
  0
LINE
  5
39B
  8
DEFAULT
 10
77.1686689066083318
 20
24.7015383068293488
 30
0.0
 11
77.1686690316288377
 21
25.0015383068293318
 31
0.0
  0
LINE
  5
39C
  8
DEFAULT
 10
77.1686690316288377
 20
25.0015383068293318
 30
0.0
 11
76.2026520449558689
 21
25.001538709402471
 31
0.0
  0
LINE
  5
39D
  8
DEFAULT
 10
76.2026520449558689
 20
25.001538709402471
 30
0.0
 11
77.1795474790701519
 21
29.313607838665181
 31
0.0
  0
LINE
  5
39E
  8
DEFAULT
 10
77.1795474790701519
 20
29.313607838665181
 30
0.0
 11
77.6249765459197647
 21
28.5928891943836199
 31
0.0
  0
LINE
  5
39F
  8
DEFAULT
 10
77.6249765459197647
 20
28.5928891943836199
 30
0.0
 11
77.8801717174273449
 21
28.7506086428966015
 31
0.0
  0
LINE
  5
3A0
  8
DEFAULT
 10
77.8801717174273449
 20
28.7506086428966015
 30
0.0
 11
77.4031768518566992
 21
29.5224017709805118
 31
0.0
  0
LINE
  5
3A1
  8
DEFAULT
 10
77.4031768518566992
 20
29.5224017709805118
 30
0.0
 11
82.82401835704934
 21
29.5224028565677692
 31
0.0
  0
LINE
  5
3A2
  8
DEFAULT
 10
82.82401835704934
 20
29.5224028565677692
 30
0.0
 11
82.3470228205482044
 21
28.7506086428966015
 31
0.0
  0
LINE
  5
3A3
  8
DEFAULT
 10
82.3470228205482044
 20
28.7506086428966015
 30
0.0
 11
82.6022179920557846
 21
28.5928891943836199
 31
0.0
  0
LINE
  5
3A4
  8
DEFAULT
 10
82.6022179920557846
 20
28.5928891943836199
 30
0.0
 11
83.0476557366338284
 21
29.3136218795106593
 31
0.0
  0
LINE
  5
3A5
  8
DEFAULT
 10
83.0476557366338284
 20
29.3136218795106593
 30
0.0
 11
84.0245435799026836
 21
25.0015387094029187
 31
0.0
  0
LINE
  5
3A6
  8
DEFAULT
 10
84.0245435799026836
 20
25.0015387094029187
 30
0.0
 11
83.0585255063467116
 21
25.0015383068293318
 31
0.0
  0
LINE
  5
3A7
  8
DEFAULT
 10
83.0585255063467116
 20
25.0015383068293318
 30
0.0
 11
83.0585256313672176
 21
24.7015383068293488
 31
0.0
  0
LINE
  5
3A8
  8
DEFAULT
 10
83.0585256313672176
 20
24.7015383068293488
 30
0.0
 11
84.0245434055458418
 21
24.7015387094028007
 31
0.0
  0
LINE
  5
3A9
  8
DEFAULT
 10
84.0245434055458418
 20
24.7015387094028007
 30
0.0
 11
83.0476515358401457
 21
20.3894590766585999
 31
0.0
  0
LINE
  5
3AA
  8
DEFAULT
 10
83.0476515358401457
 20
20.3894590766585999
 30
0.0
 11
82.6022179920557846
 21
21.1101849647656117
 31
0.0
  0
LINE
  5
3AB
  8
DEFAULT
 10
82.6022179920557846
 20
21.1101849647656117
 30
0.0
 11
82.3470228205482044
 21
20.9524655162526301
 31
0.0
  0
LINE
  5
3AC
  8
DEFAULT
 10
82.3470228205482044
 20
20.9524655162526301
 30
0.0
 11
82.8240162765990817
 21
20.1806746688173213
 31
0.0
  0
LINE
  5
3AD
  8
DEFAULT
 10
82.8240162765990817
 20
20.1806746688173213
 30
0.0
 11
77.4031782613764676
 21
20.1806746688173213
 31
0.0
  0
LINE
  5
3AE
  8
DEFAULT
 10
77.4031782613764676
 20
20.1806746688173213
 30
0.0
 11
77.8801717174273449
 21
20.9524655162526301
 31
0.0
  0
LINE
  5
3AF
  8
DEFAULT
 10
77.8801717174273449
 20
20.9524655162526301
 30
0.0
 11
77.6249765459197647
 21
21.1101849647656117
 31
0.0
  0
LINE
  5
3B0
  8
DEFAULT
 10
77.6249765459197647
 20
21.1101849647656117
 30
0.0
 11
77.1795508808088471
 21
20.3894718246071989
 31
0.0
  0
LINE
  5
3B1
  8
DEFAULT
 10
77.1795508808088471
 20
20.3894718246071989
 30
0.0
 11
76.2026512237040947
 21
24.7015387094027687
 31
0.0
  0
POLYLINE
  5
3B2
  8
DEFAULT
 66
     1
 10
0.0
 20
0.0
 30
0.0
 70
     1
  0
VERTEX
  5
3B3
  8
DEFAULT
 10
78.5673277556182938
 20
27.35345243388943
 30
0.0
  0
VERTEX
  5
3B4
  8
DEFAULT
 10
78.000520786892821
 20
24.8515359065513017
 30
0.0
  0
VERTEX
  5
3B5
  8
DEFAULT
 10
78.567330095906641
 20
22.3496211667755595
 30
0.0
  0
VERTEX
  5
3B6
  8
DEFAULT
 10
81.6598642185282415
 20
22.3496211667755595
 30
0.0
  0
VERTEX
  5
3B7
  8
DEFAULT
 10
82.2266675992777891
 20
24.8515370795746016
 30
0.0
  0
VERTEX
  5
3B8
  8
DEFAULT
 10
81.659867005897695
 20
27.3534530532067812
 30
0.0
  0
SEQEND
  5
3B9
  8
DEFAULT
  0
LINE
  5
3BA
  8
DEFAULT
 10
78.7564140110145274
 20
26.764107700188589
 30
0.0
 11
78.5212125540403179
 21
27.1446717007610516
 31
0.0
  0
LINE
  5
3BB
  8
DEFAULT
 10
78.5212125540403179
 20
27.1446717007610516
 30
0.0
 11
78.036121294349158
 21
25.0034527199538594
 31
0.0
  0
LINE
  5
3BC
  8
DEFAULT
 10
78.036121294349158
 20
25.0034527199538594
 30
0.0
 11
78.6022567497967231
 21
25.0034523268130293
 31
0.0
  0
LINE
  5
3BD
  8
DEFAULT
 10
78.6022567497967231
 20
25.0034523268130293
 30
0.0
 11
78.6022566747704161
 21
24.7034523268130499
 31
0.0
  0
LINE
  5
3BE
  8
DEFAULT
 10
78.6022566747704161
 20
24.7034523268130499
 30
0.0
 11
78.0361209385399377
 21
24.7034527199540683
 31
0.0
  0
LINE
  5
3BF
  8
DEFAULT
 10
78.0361209385399377
 20
24.7034527199540683
 30
0.0
 11
78.5212140051091012
 21
22.5622361342139683
 31
0.0
  0
LINE
  5
3C0
  8
DEFAULT
 10
78.5212140051091012
 20
22.5622361342139683
 30
0.0
 11
78.7564140110144706
 21
22.9427977869076507
 31
0.0
  0
LINE
  5
3C1
  8
DEFAULT
 10
78.7564140110144706
 20
22.9427977869076507
 30
0.0
 11
79.0116093326801945
 21
22.7850785813557195
 31
0.0
  0
LINE
  5
3C2
  8
DEFAULT
 10
79.0116093326801945
 20
22.7850785813557195
 30
0.0
 11
78.7448497751639422
 21
22.3534524949130606
 31
0.0
  0
LINE
  5
3C3
  8
DEFAULT
 10
78.7448497751639422
 20
22.3534524949130606
 30
0.0
 11
81.4823446475363937
 21
22.3534524949130287
 31
0.0
  0
LINE
  5
3C4
  8
DEFAULT
 10
81.4823446475363937
 20
22.3534524949130287
 30
0.0
 11
81.2155850900200846
 21
22.7850785813557195
 31
0.0
  0
LINE
  5
3C5
  8
DEFAULT
 10
81.2155850900200846
 20
22.7850785813557195
 30
0.0
 11
81.4707804116858085
 21
22.9427977869076507
 31
0.0
  0
LINE
  5
3C6
  8
DEFAULT
 10
81.4707804116858085
 20
22.9427977869076507
 30
0.0
 11
81.7059798758984641
 21
22.5622370106913195
 31
0.0
  0
LINE
  5
3C7
  8
DEFAULT
 10
81.7059798758984641
 20
22.5622370106913195
 30
0.0
 11
82.1910674428759478
 21
24.7034527199498584
 31
0.0
  0
LINE
  5
3C8
  8
DEFAULT
 10
82.1910674428759478
 20
24.7034527199498584
 30
0.0
 11
81.6249377479297493
 21
24.7034523268130499
 31
0.0
  0
LINE
  5
3C9
  8
DEFAULT
 10
81.6249377479297493
 20
24.7034523268130499
 30
0.0
 11
81.624937672903414
 21
25.0034523268130293
 31
0.0
  0
LINE
  5
3CA
  8
DEFAULT
 10
81.624937672903414
 20
25.0034523268130293
 30
0.0
 11
82.1910676215084948
 21
25.0034527199500509
 31
0.0
  0
LINE
  5
3CB
  8
DEFAULT
 10
82.1910676215084948
 20
25.0034527199500509
 30
0.0
 11
81.7059817530573156
 21
27.1446715137121295
 31
0.0
  0
LINE
  5
3CC
  8
DEFAULT
 10
81.7059817530573156
 20
27.1446715137121295
 30
0.0
 11
81.4707804116858085
 21
26.7641077001885286
 31
0.0
  0
LINE
  5
3CD
  8
DEFAULT
 10
81.4707804116858085
 20
26.7641077001885286
 30
0.0
 11
81.2155850900200846
 21
26.9218269057404918
 31
0.0
  0
LINE
  5
3CE
  8
DEFAULT
 10
81.2155850900200846
 20
26.9218269057404918
 30
0.0
 11
81.4823446632793349
 21
27.3534530176558199
 31
0.0
  0
LINE
  5
3CF
  8
DEFAULT
 10
81.4823446632793349
 20
27.3534530176558199
 30
0.0
 11
78.7448500982366397
 21
27.3534524694403913
 31
0.0
  0
LINE
  5
3D0
  8
DEFAULT
 10
78.7448500982366397
 20
27.3534524694403913
 30
0.0
 11
79.0116093326801945
 21
26.9218269057404918
 31
0.0
  0
POLYLINE
  8
DEFAULT
  5
D34
  66
     1
 10
0.000000
 20
0.000000
 30
0.000000
  70
     8
  0
VERTEX
  8
DEFAULT
  5
D35
 10
79.0116
 20
26.9218
 30
0.000000
  70
    32
  0
VERTEX
  8
DEFAULT
  5
D36
 10
79.0089
 20
26.9202
 30
0.000000
  70
    32
  0
VERTEX
  8
DEFAULT
  5
D37
 10
79.0062
 20
26.9185
 30
0.000000
  70
    32
  0
VERTEX
  8
DEFAULT
  5
D38
 10
79.0036
 20
26.9168
 30
0.000000
  70
    32
  0
VERTEX
  8
DEFAULT
  5
D39
 10
79.0009
 20
26.9152
 30
0.000000
  70
    32
  0
VERTEX
  8
DEFAULT
  5
D3A
 10
78.9982
 20
26.9135
 30
0.000000
  70
    32
  0
VERTEX
  8
DEFAULT
  5
D3B
 10
78.9955
 20
26.9119
 30
0.000000
  70
    32
  0
VERTEX
  8
DEFAULT
  5
D3C
 10
78.9928
 20
26.9102
 30
0.000000
  70
    32
  0
VERTEX
  8
DEFAULT
  5
D3D
 10
78.9901
 20
26.9085
 30
0.000000
  70
    32
  0
VERTEX
  8
DEFAULT
  5
D3E
 10
78.9874
 20
26.9069
 30
0.000000
  70
    32
  0
VERTEX
  8
DEFAULT
  5
D3F
 10
78.9847
 20
26.9052
 30
0.000000
  70
    32
  0
VERTEX
  8
DEFAULT
  5
D40
 10
78.9821
 20
26.9036
 30
0.000000
  70
    32
  0
VERTEX
  8
DEFAULT
  5
D41
 10
78.9794
 20
26.9019
 30
0.000000
  70
    32
  0
VERTEX
  8
DEFAULT
  5
D42
 10
78.9767
 20
26.9002
 30
0.000000
  70
    32
  0
VERTEX
  8
DEFAULT
  5
D43
 10
78.9740
 20
26.8986
 30
0.000000
  70
    32
  0
VERTEX
  8
DEFAULT
  5
D44
 10
78.9713
 20
26.8969
 30
0.000000
  70
    32
  0
VERTEX
  8
DEFAULT
  5
D45
 10
78.9686
 20
26.8953
 30
0.000000
  70
    32
  0
VERTEX
  8
DEFAULT
  5
D46
 10
78.9659
 20
26.8936
 30
0.000000
  70
    32
  0
VERTEX
  8
DEFAULT
  5
D47
 10
78.9633
 20
26.8919
 30
0.000000
  70
    32
  0
VERTEX
  8
DEFAULT
  5
D48
 10
78.9606
 20
26.8903
 30
0.000000
  70
    32
  0
VERTEX
  8
DEFAULT
  5
D49
 10
78.9579
 20
26.8886
 30
0.000000
  70
    32
  0
VERTEX
  8
DEFAULT
  5
D4A
 10
78.9552
 20
26.8870
 30
0.000000
  70
    32
  0
VERTEX
  8
DEFAULT
  5
D4B
 10
78.9525
 20
26.8853
 30
0.000000
  70
    32
  0
VERTEX
  8
DEFAULT
  5
D4C
 10
78.9498
 20
26.8836
 30
0.000000
  70
    32
  0
VERTEX
  8
DEFAULT
  5
D4D
 10
78.9471
 20
26.8820
 30
0.000000
  70
    32
  0
VERTEX
  8
DEFAULT
  5
D4E
 10
78.9445
 20
26.8803
 30
0.000000
  70
    32
  0
VERTEX
  8
DEFAULT
  5
D4F
 10
78.9418
 20
26.8787
 30
0.000000
  70
    32
  0
VERTEX
  8
DEFAULT
  5
D50
 10
78.9391
 20
26.8770
 30
0.000000
  70
    32
  0
VERTEX
  8
DEFAULT
  5
D51
 10
78.9364
 20
26.8753
 30
0.000000
  70
    32
  0
VERTEX
  8
DEFAULT
  5
D52
 10
78.9337
 20
26.8737
 30
0.000000
  70
    32
  0
VERTEX
  8
DEFAULT
  5
D53
 10
78.9310
 20
26.8720
 30
0.000000
  70
    32
  0
VERTEX
  8
DEFAULT
  5
D54
 10
78.9283
 20
26.8704
 30
0.000000
  70
    32
  0
VERTEX
  8
DEFAULT
  5
D55
 10
78.9256
 20
26.8687
 30
0.000000
  70
    32
  0
VERTEX
  8
DEFAULT
  5
D56
 10
78.9230
 20
26.8670
 30
0.000000
  70
    32
  0
VERTEX
  8
DEFAULT
  5
D57
 10
78.9203
 20
26.8654
 30
0.000000
  70
    32
  0
VERTEX
  8
DEFAULT
  5
D58
 10
78.9176
 20
26.8637
 30
0.000000
  70
    32
  0
VERTEX
  8
DEFAULT
  5
D59
 10
78.9149
 20
26.8621
 30
0.000000
  70
    32
  0
VERTEX
  8
DEFAULT
  5
D5A
 10
78.9122
 20
26.8604
 30
0.000000
  70
    32
  0
VERTEX
  8
DEFAULT
  5
D5B
 10
78.9095
 20
26.8587
 30
0.000000
  70
    32
  0
VERTEX
  8
DEFAULT
  5
D5C
 10
78.9068
 20
26.8571
 30
0.000000
  70
    32
  0
VERTEX
  8
DEFAULT
  5
D5D
 10
78.9042
 20
26.8554
 30
0.000000
  70
    32
  0
VERTEX
  8
DEFAULT
  5
D5E
 10
78.9015
 20
26.8538
 30
0.000000
  70
    32
  0
VERTEX
  8
DEFAULT
  5
D5F
 10
78.8988
 20
26.8521
 30
0.000000
  70
    32
  0
VERTEX
  8
DEFAULT
  5
D60
 10
78.8961
 20
26.8504
 30
0.000000
  70
    32
  0
VERTEX
  8
DEFAULT
  5
D61
 10
78.8934
 20
26.8488
 30
0.000000
  70
    32
  0
VERTEX
  8
DEFAULT
  5
D62
 10
78.8907
 20
26.8471
 30
0.000000
  70
    32
  0
VERTEX
  8
DEFAULT
  5
D63
 10
78.8880
 20
26.8455
 30
0.000000
  70
    32
  0
VERTEX
  8
DEFAULT
  5
D64
 10
78.8854
 20
26.8438
 30
0.000000
  70
    32
  0
VERTEX
  8
DEFAULT
  5
D65
 10
78.8827
 20
26.8421
 30
0.000000
  70
    32
  0
VERTEX
  8
DEFAULT
  5
D66
 10
78.8800
 20
26.8405
 30
0.000000
  70
    32
  0
VERTEX
  8
DEFAULT
  5
D67
 10
78.8773
 20
26.8388
 30
0.000000
  70
    32
  0
VERTEX
  8
DEFAULT
  5
D68
 10
78.8746
 20
26.8372
 30
0.000000
  70
    32
  0
VERTEX
  8
DEFAULT
  5
D69
 10
78.8719
 20
26.8355
 30
0.000000
  70
    32
  0
VERTEX
  8
DEFAULT
  5
D6A
 10
78.8692
 20
26.8338
 30
0.000000
  70
    32
  0
VERTEX
  8
DEFAULT
  5
D6B
 10
78.8666
 20
26.8322
 30
0.000000
  70
    32
  0
VERTEX
  8
DEFAULT
  5
D6C
 10
78.8639
 20
26.8305
 30
0.000000
  70
    32
  0
VERTEX
  8
DEFAULT
  5
D6D
 10
78.8612
 20
26.8289
 30
0.000000
  70
    32
  0
VERTEX
  8
DEFAULT
  5
D6E
 10
78.8585
 20
26.8272
 30
0.000000
  70
    32
  0
VERTEX
  8
DEFAULT
  5
D6F
 10
78.8558
 20
26.8255
 30
0.000000
  70
    32
  0
VERTEX
  8
DEFAULT
  5
D70
 10
78.8531
 20
26.8239
 30
0.000000
  70
    32
  0
VERTEX
  8
DEFAULT
  5
D71
 10
78.8504
 20
26.8222
 30
0.000000
  70
    32
  0
VERTEX
  8
DEFAULT
  5
D72
 10
78.8477
 20
26.8206
 30
0.000000
  70
    32
  0
VERTEX
  8
DEFAULT
  5
D73
 10
78.8451
 20
26.8189
 30
0.000000
  70
    32
  0
VERTEX
  8
DEFAULT
  5
D74
 10
78.8424
 20
26.8172
 30
0.000000
  70
    32
  0
VERTEX
  8
DEFAULT
  5
D75
 10
78.8397
 20
26.8156
 30
0.000000
  70
    32
  0
VERTEX
  8
DEFAULT
  5
D76
 10
78.8370
 20
26.8139
 30
0.000000
  70
    32
  0
VERTEX
  8
DEFAULT
  5
D77
 10
78.8343
 20
26.8123
 30
0.000000
  70
    32
  0
VERTEX
  8
DEFAULT
  5
D78
 10
78.8316
 20
26.8106
 30
0.000000
  70
    32
  0
VERTEX
  8
DEFAULT
  5
D79
 10
78.8289
 20
26.8089
 30
0.000000
  70
    32
  0
VERTEX
  8
DEFAULT
  5
D7A
 10
78.8263
 20
26.8073
 30
0.000000
  70
    32
  0
VERTEX
  8
DEFAULT
  5
D7B
 10
78.8236
 20
26.8056
 30
0.000000
  70
    32
  0
VERTEX
  8
DEFAULT
  5
D7C
 10
78.8209
 20
26.8040
 30
0.000000
  70
    32
  0
VERTEX
  8
DEFAULT
  5
D7D
 10
78.8182
 20
26.8023
 30
0.000000
  70
    32
  0
VERTEX
  8
DEFAULT
  5
D7E
 10
78.8155
 20
26.8006
 30
0.000000
  70
    32
  0
VERTEX
  8
DEFAULT
  5
D7F
 10
78.8128
 20
26.7990
 30
0.000000
  70
    32
  0
VERTEX
  8
DEFAULT
  5
D80
 10
78.8101
 20
26.7973
 30
0.000000
  70
    32
  0
VERTEX
  8
DEFAULT
  5
D81
 10
78.8075
 20
26.7957
 30
0.000000
  70
    32
  0
VERTEX
  8
DEFAULT
  5
D82
 10
78.8048
 20
26.7940
 30
0.000000
  70
    32
  0
VERTEX
  8
DEFAULT
  5
D83
 10
78.8021
 20
26.7923
 30
0.000000
  70
    32
  0
VERTEX
  8
DEFAULT
  5
D84
 10
78.7994
 20
26.7907
 30
0.000000
  70
    32
  0
VERTEX
  8
DEFAULT
  5
D85
 10
78.7967
 20
26.7890
 30
0.000000
  70
    32
  0
VERTEX
  8
DEFAULT
  5
D86
 10
78.7940
 20
26.7874
 30
0.000000
  70
    32
  0
VERTEX
  8
DEFAULT
  5
D87
 10
78.7913
 20
26.7857
 30
0.000000
  70
    32
  0
VERTEX
  8
DEFAULT
  5
D88
 10
78.7886
 20
26.7840
 30
0.000000
  70
    32
  0
VERTEX
  8
DEFAULT
  5
D89
 10
78.7860
 20
26.7824
 30
0.000000
  70
    32
  0
VERTEX
  8
DEFAULT
  5
D8A
 10
78.7833
 20
26.7807
 30
0.000000
  70
    32
  0
VERTEX
  8
DEFAULT
  5
D8B
 10
78.7806
 20
26.7790
 30
0.000000
  70
    32
  0
VERTEX
  8
DEFAULT
  5
D8C
 10
78.7779
 20
26.7774
 30
0.000000
  70
    32
  0
VERTEX
  8
DEFAULT
  5
D8D
 10
78.7752
 20
26.7757
 30
0.000000
  70
    32
  0
VERTEX
  8
DEFAULT
  5
D8E
 10
78.7725
 20
26.7741
 30
0.000000
  70
    32
  0
VERTEX
  8
DEFAULT
  5
D8F
 10
78.7698
 20
26.7724
 30
0.000000
  70
    32
  0
VERTEX
  8
DEFAULT
  5
D90
 10
78.7672
 20
26.7707
 30
0.000000
  70
    32
  0
VERTEX
  8
DEFAULT
  5
D91
 10
78.7645
 20
26.7691
 30
0.000000
  70
    32
  0
VERTEX
  8
DEFAULT
  5
D92
 10
78.7618
 20
26.7674
 30
0.000000
  70
    32
  0
VERTEX
  8
DEFAULT
  5
D93
 10
78.7591
 20
26.7658
 30
0.000000
  70
    32
  0
VERTEX
  8
DEFAULT
  5
D94
 10
78.7564
 20
26.7641
 30
0.000000
  70
    32
  0
SEQEND
  8
DEFAULT
  5
D95
  0
LINE
  5
3D2
  8
DEFAULT
 10
85.2061078607214313
 20
19.0646368458920108
 30
0.0
 11
84.9061078607214768
 21
19.0646368458919788
 31
0.0
  0
LINE
  5
3D3
  8
DEFAULT
 10
84.9061078607214768
 20
19.0646368458919788
 30
0.0
 11
84.9061078607214768
 21
19.3646368458920186
 31
0.0
  0
LINE
  5
3D4
  8
DEFAULT
 10
84.9061078607214768
 20
19.3646368458920186
 30
0.0
 11
84.6561078607214768
 21
19.3646368458919902
 31
0.0
  0
LINE
  5
3D5
  8
DEFAULT
 10
84.6561078607214768
 20
19.3646368458919902
 30
0.0
 11
84.6561078607214768
 21
19.0646368458920108
 31
0.0
  0
LINE
  5
3D6
  8
DEFAULT
 10
84.6561078607214768
 20
19.0646368458920108
 30
0.0
 11
84.2061078607214455
 21
19.0646368458920108
 31
0.0
  0
LINE
  5
3D7
  8
DEFAULT
 10
84.2061078607214455
 20
19.0646368458920108
 30
0.0
 11
84.2061078607214455
 21
19.7146368458920414
 31
0.0
  0
LINE
  5
3D8
  8
DEFAULT
 10
84.2061078607214455
 20
19.7146368458920414
 30
0.0
 11
86.4061078607214768
 21
19.7146368458919916
 31
0.0
  0
LINE
  5
3D9
  8
DEFAULT
 10
86.4061078607214768
 20
15.7146368458919898
 30
0.0
 11
84.2061078607214881
 21
15.7146368458919596
 31
0.0
  0
LINE
  5
3DA
  8
DEFAULT
 10
84.2061078607214881
 20
15.7146368458919596
 30
0.0
 11
84.2061078607214881
 21
16.3646368458919902
 31
0.0
  0
LINE
  5
3DB
  8
DEFAULT
 10
84.2061078607214881
 20
16.3646368458919902
 30
0.0
 11
84.6561078607214768
 21
16.3646368458919902
 31
0.0
  0
LINE
  5
3DC
  8
DEFAULT
 10
84.6561078607214768
 20
16.3646368458919902
 30
0.0
 11
84.6561078607214768
 21
16.0646368458920108
 31
0.0
  0
LINE
  5
3DD
  8
DEFAULT
 10
84.6561078607214768
 20
16.0646368458920108
 30
0.0
 11
84.9061078607214768
 21
16.0646368458919788
 31
0.0
  0
LINE
  5
3DE
  8
DEFAULT
 10
84.9061078607214768
 20
16.0646368458919788
 30
0.0
 11
84.9061078607214768
 21
16.3646368458920186
 31
0.0
  0
LINE
  5
3DF
  8
DEFAULT
 10
84.9061078607214768
 20
16.3646368458920186
 30
0.0
 11
85.2061078607214881
 21
16.3646368458919902
 31
0.0
  0
POLYLINE
  5
3E0
  8
DEFAULT
 66
     1
 10
0.0
 20
0.0
 30
0.0
  0
VERTEX
  5
7D4
  8
DEFAULT
 10
84.9061078607214768
 20
16.3646368458920186
 30
0.0
  0
VERTEX
  5
7D5
  8
DEFAULT
 10
85.2061078607214881
 20
16.3646368458919902
 30
0.0
  0
VERTEX
  5
7D6
  8
DEFAULT
 10
85.2061078607214881
 20
16.3046368458920199
 30
0.0
  0
VERTEX
  5
7D7
  8
DEFAULT
 10
85.4061078607214768
 20
16.3046368458920483
 30
0.0
  0
VERTEX
  5
7D8
  8
DEFAULT
 10
85.4061078607214768
 20
16.3646368458919902
 30
0.0
  0
VERTEX
  5
7D9
  8
DEFAULT
 10
86.4061078607214768
 20
16.3646368458920186
 30
0.0
  0
VERTEX
  5
7DA
  8
DEFAULT
 10
86.4061078607214768
 20
19.0646368458919788
 30
0.0
  0
VERTEX
  5
7DB
  8
DEFAULT
 10
85.4061078607214057
 20
19.0646368458919504
 30
0.0
  0
VERTEX
  5
7DC
  8
DEFAULT
 10
85.4061078607214057
 20
19.1246368458920095
 30
0.0
  0
VERTEX
  5
7DD
  8
DEFAULT
 10
85.2061078607214881
 20
19.1246368458919491
 30
0.0
  0
VERTEX
  5
7DE
  8
DEFAULT
 10
85.2061078607214881
 20
19.0646368458919504
 30
0.0
  0
VERTEX
  5
7DF
  8
DEFAULT
 10
84.9061078607214768
 20
19.0646368458919788
 30
0.0
  0
SEQEND
  5
7E0
  8
DEFAULT
  0
POLYLINE
  5
3E1
  8
DEFAULT
 66
     1
 10
0.0
 20
0.0
 30
0.0
  0
VERTEX
  5
7E1
  8
DEFAULT
 10
87.2061078607214313
 20
17.8646368458919618
 30
0.0
  0
VERTEX
  5
7E2
  8
DEFAULT
 10
88.0061078607213858
 20
17.8646368458920186
 30
0.0
  0
VERTEX
  5
7E3
  8
DEFAULT
 10
87.2061078607214313
 20
17.8646368458919618
 30
0.0
  0
VERTEX
  5
7E4
  8
DEFAULT
 10
87.2061078607214739
 20
17.5646368458920108
 30
0.0
  0
VERTEX
  5
7E5
  8
DEFAULT
 10
88.0061078607214995
 20
17.5646368458920108
 30
0.0
  0
VERTEX
  5
7E6
  8
DEFAULT
 10
88.0061078607214426
 20
17.5146368458919994
 30
0.0
  0
VERTEX
  5
7E7
  8
DEFAULT
 10
90.0061078607214426
 20
17.5146368458920492
 30
0.0
  0
VERTEX
  5
7E8
  8
DEFAULT
 10
90.0061078607214853
 20
17.91463684589203
 30
0.0
  0
VERTEX
  5
7E9
  8
DEFAULT
 10
88.0061078607214995
 20
17.91463684589203
 30
0.0
  0
VERTEX
  5
7EA
  8
DEFAULT
 10
88.0061078607213858
 20
17.8646368458920186
 30
0.0
  0
SEQEND
  5
7EB
  8
DEFAULT
  0
LINE
  5
3E2
  8
DEFAULT
 10
85.4450675030000752
 20
23.5016664935533903
 30
0.0
 11
85.1450675030000639
 21
23.5016664949266705
 31
0.0
  0
LINE
  5
3E3
  8
DEFAULT
 10
85.1450675030000639
 20
23.5016664949266705
 30
0.0
 11
85.145067504373344
 21
23.8016664949267316
 31
0.0
  0
LINE
  5
3E4
  8
DEFAULT
 10
85.145067504373344
 20
23.8016664949267316
 30
0.0
 11
84.895067504373344
 21
23.8016664960711104
 31
0.0
  0
LINE
  5
3E5
  8
DEFAULT
 10
84.895067504373344
 20
23.8016664960711104
 30
0.0
 11
84.8950675030000639
 21
23.501666496071099
 31
0.0
  0
LINE
  5
3E6
  8
DEFAULT
 10
84.8950675030000639
 20
23.501666496071099
 30
0.0
 11
84.4450675030000752
 21
23.5016664981310406
 31
0.0
  0
LINE
  5
3E7
  8
DEFAULT
 10
84.4450675030000752
 20
23.5016664981310406
 30
0.0
 11
84.4450675059754872
 21
24.1516664981310214
 31
0.0
  0
LINE
  5
3E8
  8
DEFAULT
 10
84.4450675059754872
 20
24.1516664981310214
 30
0.0
 11
92.9085912738006385
 21
24.1516664593885402
 31
0.0
  0
LINE
  5
3E9
  8
DEFAULT
 10
91.6088013266536336
 20
20.151666465338451
 30
0.0
 11
84.4450674876651703
 21
20.1516664981310214
 31
0.0
  0
LINE
  5
3EA
  8
DEFAULT
 10
84.4450674876651703
 20
20.1516664981310214
 30
0.0
 11
84.4450674906406107
 21
20.8016664981309987
 31
0.0
  0
LINE
  5
3EB
  8
DEFAULT
 10
84.4450674906406107
 20
20.8016664981309987
 30
0.0
 11
84.8950674906405993
 21
20.8016664960711104
 31
0.0
  0
LINE
  5
3EC
  8
DEFAULT
 10
84.8950674906405993
 20
20.8016664960711104
 30
0.0
 11
84.8950674892673334
 21
20.501666496071099
 31
0.0
  0
LINE
  5
3ED
  8
DEFAULT
 10
84.8950674892673334
 20
20.501666496071099
 30
0.0
 11
85.1450674892673192
 21
20.5016664949267202
 31
0.0
  0
LINE
  5
3EE
  8
DEFAULT
 10
85.1450674892673192
 20
20.5016664949267202
 30
0.0
 11
85.1450674906405851
 21
20.8016664949266783
 31
0.0
  0
LINE
  5
3EF
  8
DEFAULT
 10
85.1450674906405851
 20
20.8016664949266783
 30
0.0
 11
85.4450674906405965
 21
20.8016664935534017
 31
0.0
  0
POLYLINE
  5
3F0
  8
DEFAULT
 66
     1
 10
0.0
 20
0.0
 30
0.0
  0
VERTEX
  5
7EC
  8
DEFAULT
 10
85.1450674906405851
 20
20.8016664949266783
 30
0.0
  0
VERTEX
  5
7ED
  8
DEFAULT
 10
85.4450674906405965
 20
20.8016664935534017
 30
0.0
  0
VERTEX
  5
7EE
  8
DEFAULT
 10
85.4450674903659433
 20
20.7416664935534492
 30
0.0
  0
VERTEX
  5
7EF
  8
DEFAULT
 10
85.6450674903659888
 20
20.7416664926378793
 30
0.0
  0
VERTEX
  5
7F0
  8
DEFAULT
 10
85.6450674906405425
 20
20.8016664926378816
 30
0.0
  0
VERTEX
  5
7F1
  8
DEFAULT
 10
86.6450674906405851
 20
20.8016664880603308
 30
0.0
  0
VERTEX
  5
7F2
  8
DEFAULT
 10
86.6450675030000639
 20
23.5016664880603194
 30
0.0
  0
VERTEX
  5
7F3
  8
DEFAULT
 10
85.6450675030000639
 20
23.5016664926378702
 30
0.0
  0
VERTEX
  5
7F4
  8
DEFAULT
 10
85.6450675032746744
 20
23.5616664926378689
 30
0.0
  0
VERTEX
  5
7F5
  8
DEFAULT
 10
85.4450675032747426
 20
23.561666493553389
 30
0.0
  0
VERTEX
  5
7F6
  8
DEFAULT
 10
85.4450675030000752
 20
23.5016664935533903
 30
0.0
  0
VERTEX
  5
7F7
  8
DEFAULT
 10
85.1450675030000639
 20
23.5016664949266705
 30
0.0
  0
SEQEND
  5
7F8
  8
DEFAULT
  0
POLYLINE
  5
3F1
  8
DEFAULT
 66
     1
 10
0.0
 20
0.0
 30
0.0
  0
VERTEX
  5
7F9
  8
DEFAULT
 10
87.4450674975069546
 20
22.3016664843982504
 30
0.0
  0
VERTEX
  5
7FA
  8
DEFAULT
 10
88.245067497506966
 20
22.3016664807362304
 30
0.0
  0
VERTEX
  5
7FB
  8
DEFAULT
 10
87.4450674975069546
 20
22.3016664843982504
 30
0.0
  0
VERTEX
  5
7FC
  8
DEFAULT
 10
87.4450674961337313
 20
22.001666484398239
 30
0.0
  0
VERTEX
  5
7FD
  8
DEFAULT
 10
88.2450674961336858
 20
22.0016664807361586
 30
0.0
  0
VERTEX
  5
7FE
  8
DEFAULT
 10
88.2450674959047774
 20
21.9516664807362112
 30
0.0
  0
VERTEX
  5
7FF
  8
DEFAULT
 10
90.2450674959047632
 20
21.9516664715810101
 30
0.0
  0
VERTEX
  5
800
  8
DEFAULT
 10
90.2450674977358176
 20
22.3516664715810407
 30
0.0
  0
VERTEX
  5
801
  8
DEFAULT
 10
88.2450674977358034
 20
22.3516664807361884
 30
0.0
  0
VERTEX
  5
802
  8
DEFAULT
 10
88.245067497506966
 20
22.3016664807362304
 30
0.0
  0
SEQEND
  5
803
  8
DEFAULT
  0
LINE
  5
3F2
  8
DEFAULT
 10
92.0245627990114485
 20
22.4017672271399384
 30
0.0
 11
92.0417249825632666
 21
22.4172201488398812
 31
0.0
  0
LINE
  5
3F3
  8
DEFAULT
 10
92.3098836714937647
 20
22.3090610814806496
 30
0.0
 11
92.3050821405147985
 21
22.3316504292708906
 31
0.0
  0
LINE
  5
3F4
  8
DEFAULT
 10
92.117274780491357
 20
22.687081968588469
 30
0.0
 11
92.1220763126310089
 21
22.6644926153373412
 31
0.0
  0
LINE
  5
3F5
  8
DEFAULT
 10
92.4025918080761244
 20
22.5943770837034812
 30
0.0
 11
92.3854296239825885
 21
22.5789241615158289
 31
0.0
  0
LINE
  5
3F6
  8
DEFAULT
 10
81.2242026125318688
 20
25.0034537679132995
 30
0.0
 11
80.9242026125023415
 21
25.0034537679132995
 31
0.0
  0
LINE
  5
3F7
  8
DEFAULT
 10
80.9242026125023415
 20
25.0034537679132995
 30
0.0
 11
80.9242068209183003
 21
24.7034523268130499
 31
0.0
  0
LINE
  5
3F8
  8
DEFAULT
 10
80.9242068209183003
 20
24.7034523268130499
 30
0.0
 11
81.2242068209478134
 21
24.7034523268130499
 31
0.0
  0
LINE
  5
3F9
  8
DEFAULT
 10
81.2242068209478134
 20
24.7034523268130499
 30
0.0
 11
81.2242026125318688
 21
25.0034537679132995
 31
0.0
  0
LINE
  5
3FA
  8
DEFAULT
 10
79.0029921489841058
 20
25.0034537679132995
 30
0.0
 11
79.3029921490136331
 21
25.0034537679132995
 31
0.0
  0
LINE
  5
3FB
  8
DEFAULT
 10
79.3029921490136331
 20
25.0034537679132995
 30
0.0
 11
79.3029879405976885
 21
24.7034523268130499
 31
0.0
  0
LINE
  5
3FC
  8
DEFAULT
 10
79.3029879405976885
 20
24.7034523268130499
 30
0.0
 11
79.0029879405681754
 21
24.7034523268130499
 31
0.0
  0
LINE
  5
3FD
  8
DEFAULT
 10
79.0029879405681754
 20
24.7034523268130499
 30
0.0
 11
79.0029921489841058
 21
25.0034537679132995
 31
0.0
  0
LINE
  5
3FE
  8
DEFAULT
 10
90.0760683392406349
 20
21.3700633803268794
 30
0.0
 11
90.093230522792453
 21
21.3855163020267582
 31
0.0
  0
LINE
  5
3FF
  8
DEFAULT
 10
90.3613853604168753
 20
21.2773584860270795
 30
0.0
 11
90.356583829437966
 21
21.2999478338175514
 31
0.0
  0
LINE
  5
400
  8
DEFAULT
 10
90.1687732335404348
 20
21.6553804015030096
 30
0.0
 11
90.1735747645193442
 21
21.6327910537125909
 31
0.0
  0
LINE
  5
401
  8
DEFAULT
 10
90.4540902547166041
 20
21.5626755072031493
 30
0.0
 11
90.4369280711649139
 21
21.5472225855033912
 31
0.0
  0
POLYLINE
  5
402
  8
DEFAULT
 66
     1
 10
0.0
 20
0.0
 30
0.0
 70
     1
  0
VERTEX
  5
804
  8
DEFAULT
 10
82.7585255063467145
 20
25.0015381818088294
 30
0.0
  0
VERTEX
  5
805
  8
DEFAULT
 10
82.4585255063467741
 20
25.0015380567883199
 30
0.0
  0
VERTEX
  5
806
  8
DEFAULT
 10
82.4585256313672659
 20
24.7015380567883405
 30
0.0
  0
VERTEX
  5
807
  8
DEFAULT
 10
82.7585256313672346
 20
24.70153818180885
 30
0.0
  0
SEQEND
  5
808
  8
DEFAULT
  0
POLYLINE
  5
403
  8
DEFAULT
 66
     1
 10
0.0
 20
0.0
 30
0.0
 70
     1
  0
VERTEX
  5
809
  8
DEFAULT
 10
77.4686692551692602
 20
25.0015381818088294
 30
0.0
  0
VERTEX
  5
80A
  8
DEFAULT
 10
77.7686692551692147
 20
25.0015380567883199
 30
0.0
  0
VERTEX
  5
80B
  8
DEFAULT
 10
77.7686691301486945
 20
24.7015380567883405
 30
0.0
  0
VERTEX
  5
80C
  8
DEFAULT
 10
77.4686691301487542
 20
24.70153818180885
 30
0.0
  0
SEQEND
  5
80D
  8
DEFAULT
  0
LINE
  5
404
  8
DEFAULT
 10
90.7069191482324868
 20
21.4805266197913589
 30
0.0
 11
91.9132615884563933
 21
21.0885631542186012
 31
0.0
  0
LINE
  5
405
  8
DEFAULT
 10
90.6142144008295531
 20
21.1952095508855791
 30
0.0
 11
91.820544349895556
 21
20.8032501439262205
 31
0.0
  0
LINE
  5
406
  8
DEFAULT
 10
80.7789287583187843
 20
24.0622374213186916
 30
0.0
 11
80.5237335069125351
 21
23.9045181020844701
 31
0.0
  0
LINE
  5
407
  8
DEFAULT
 10
80.5237335069125351
 20
23.9045181020844701
 30
0.0
 11
80.6814528261467672
 21
23.6493228506782316
 31
0.0
  0
LINE
  5
408
  8
DEFAULT
 10
80.6814528261467672
 20
23.6493228506782316
 30
0.0
 11
80.936648077264536
 21
23.8070421697341317
 31
0.0
  0
LINE
  5
409
  8
DEFAULT
 10
80.936648077264536
 20
23.8070421697341317
 30
0.0
 11
80.7789287583187843
 21
24.0622374213186916
 31
0.0
  0
LINE
  5
40A
  8
DEFAULT
 10
79.4482656643815517
 20
24.0622374213186916
 30
0.0
 11
79.7034609157878151
 21
23.9045181020844701
 31
0.0
  0
LINE
  5
40B
  8
DEFAULT
 10
79.7034609157878151
 20
23.9045181020844701
 30
0.0
 11
79.5457415965535688
 21
23.6493228506782316
 31
0.0
  0
LINE
  5
40C
  8
DEFAULT
 10
79.5457415965535688
 20
23.6493228506782316
 30
0.0
 11
79.2905463454358141
 21
23.8070421697341317
 31
0.0
  0
LINE
  5
40D
  8
DEFAULT
 10
79.2905463454358141
 20
23.8070421697341317
 30
0.0
 11
79.4482656643815517
 21
24.0622374213186916
 31
0.0
  0
LINE
  5
40E
  8
DEFAULT
 10
80.7789287583187843
 20
25.6446672323073699
 30
0.0
 11
80.5237335069125351
 21
25.8023865515415913
 31
0.0
  0
LINE
  5
40F
  8
DEFAULT
 10
80.5237335069125351
 20
25.8023865515415913
 30
0.0
 11
80.6814528261467672
 21
26.0575818029478192
 31
0.0
  0
LINE
  5
410
  8
DEFAULT
 10
80.6814528261467672
 20
26.0575818029478192
 30
0.0
 11
80.936648077264536
 21
25.8998624838919191
 31
0.0
  0
LINE
  5
411
  8
DEFAULT
 10
80.936648077264536
 20
25.8998624838919191
 30
0.0
 11
80.7789287583187843
 21
25.6446672323073699
 31
0.0
  0
LINE
  5
412
  8
DEFAULT
 10
79.4482656643815517
 20
25.6446672323073699
 30
0.0
 11
79.7034609157878151
 21
25.8023865515415913
 31
0.0
  0
LINE
  5
413
  8
DEFAULT
 10
79.7034609157878151
 20
25.8023865515415913
 30
0.0
 11
79.5457415965535688
 21
26.0575818029478192
 31
0.0
  0
LINE
  5
414
  8
DEFAULT
 10
79.5457415965535688
 20
26.0575818029478192
 30
0.0
 11
79.2905463454358141
 21
25.8998624838919191
 31
0.0
  0
LINE
  5
415
  8
DEFAULT
 10
79.2905463454358141
 20
25.8998624838919191
 30
0.0
 11
79.4482656643815517
 21
25.6446672323073699
 31
0.0
  0
POLYLINE
  5
416
  8
DEFAULT
 66
     1
 10
0.0
 20
0.0
 30
0.0
 70
     1
  0
VERTEX
  5
80E
  8
DEFAULT
 10
82.0315839235222768
 20
21.4628558592677301
 30
0.0
  0
VERTEX
  5
80F
  8
DEFAULT
 10
81.873864475009313
 20
21.718051030775289
 30
0.0
  0
VERTEX
  5
810
  8
DEFAULT
 10
82.1290596465169074
 20
21.8757704792882599
 30
0.0
  0
VERTEX
  5
811
  8
DEFAULT
 10
82.286779095029857
 20
21.6205753077807117
 30
0.0
  0
SEQEND
  5
812
  8
DEFAULT
  0
POLYLINE
  5
417
  8
DEFAULT
 66
     1
 10
0.0
 20
0.0
 30
0.0
 70
     1
  0
VERTEX
  5
813
  8
DEFAULT
 10
78.1956106144532725
 20
21.4628558592677301
 30
0.0
  0
VERTEX
  5
814
  8
DEFAULT
 10
78.3533300629662222
 20
21.718051030775289
 30
0.0
  0
VERTEX
  5
815
  8
DEFAULT
 10
78.098134891458642
 20
21.8757704792882599
 30
0.0
  0
VERTEX
  5
816
  8
DEFAULT
 10
77.9404154429456923
 20
21.6205753077807117
 30
0.0
  0
SEQEND
  5
817
  8
DEFAULT
  0
POLYLINE
  5
418
  8
DEFAULT
 66
     1
 10
0.0
 20
0.0
 30
0.0
 70
     1
  0
VERTEX
  5
818
  8
DEFAULT
 10
82.0315839235222768
 20
28.2402202543088983
 30
0.0
  0
VERTEX
  5
819
  8
DEFAULT
 10
81.873864475009313
 20
27.9850250828013394
 30
0.0
  0
VERTEX
  5
81A
  8
DEFAULT
 10
82.1290596465169074
 20
27.8273056342883685
 30
0.0
  0
VERTEX
  5
81B
  8
DEFAULT
 10
82.286779095029857
 20
28.0825008057959202
 30
0.0
  0
SEQEND
  5
81C
  8
DEFAULT
  0
POLYLINE
  5
419
  8
DEFAULT
 66
     1
 10
0.0
 20
0.0
 30
0.0
 70
     1
  0
VERTEX
  5
81D
  8
DEFAULT
 10
78.1956106144532725
 20
28.2402202543088983
 30
0.0
  0
VERTEX
  5
81E
  8
DEFAULT
 10
78.3533300629662222
 20
27.9850250828013394
 30
0.0
  0
VERTEX
  5
81F
  8
DEFAULT
 10
78.098134891458642
 20
27.8273056342883685
 30
0.0
  0
VERTEX
  5
820
  8
DEFAULT
 10
77.9404154429456923
 20
28.0825008057959202
 30
0.0
  0
SEQEND
  5
821
  8
DEFAULT
  0
POLYLINE
  5
41A
  8
DEFAULT
 66
     1
 10
0.0
 20
0.0
 30
0.0
  0
VERTEX
  5
822
  8
DEFAULT
 10
91.5641126121141724
 20
17.9185917814343405
 30
0.0
  0
VERTEX
  5
823
  8
DEFAULT
 10
91.5469504234770142
 20
17.9340446974865984
 30
0.0
  0
VERTEX
  5
824
  8
DEFAULT
 10
91.2835971449896846
 20
17.848476142615251
 30
0.0
  0
VERTEX
  5
825
  8
DEFAULT
 10
91.2787956214444733
 20
17.8258867932448517
 30
0.0
  0
SEQEND
  5
826
  8
DEFAULT
  0
POLYLINE
  5
41B
  8
DEFAULT
 66
     1
 10
0.0
 20
0.0
 30
0.0
  0
VERTEX
  5
827
  8
DEFAULT
 10
91.4714076239246765
 20
18.2039087721039685
 30
0.0
  0
VERTEX
  5
828
  8
DEFAULT
 10
91.4666061003794653
 20
18.181319422733651
 30
0.0
  0
VERTEX
  5
829
  8
DEFAULT
 10
91.2032528218921357
 20
18.0957508678623107
 30
0.0
  0
VERTEX
  5
82A
  8
DEFAULT
 10
91.1860906332549348
 20
18.1112037839145295
 30
0.0
  0
SEQEND
  5
82B
  8
DEFAULT
  0
POLYLINE
  5
41C
  8
DEFAULT
 66
     1
 10
0.0
 20
0.0
 30
0.0
  0
VERTEX
  5
82C
  8
DEFAULT
 10
94.4957916117302261
 20
17.2063440664315088
 30
0.0
  0
VERTEX
  5
82D
  8
DEFAULT
 10
94.4786294230930821
 20
17.2217969824837702
 30
0.0
  0
VERTEX
  5
82E
  8
DEFAULT
 10
94.2152761446840685
 20
17.1362284279808001
 30
0.0
  0
VERTEX
  5
82F
  8
DEFAULT
 10
94.2104746210605839
 20
17.11363907824202
 30
0.0
  0
SEQEND
  5
830
  8
DEFAULT
  0
POLYLINE
  5
41D
  8
DEFAULT
 66
     1
 10
0.0
 20
0.0
 30
0.0
  0
VERTEX
  5
831
  8
DEFAULT
 10
94.4030866235407871
 20
17.4916610571011901
 30
0.0
  0
VERTEX
  5
832
  8
DEFAULT
 10
94.3982850999987022
 20
17.4690717077455702
 30
0.0
  0
VERTEX
  5
833
  8
DEFAULT
 10
94.134931821228335
 20
17.3835031531114907
 30
0.0
  0
VERTEX
  5
834
  8
DEFAULT
 10
94.1177696328711022
 20
17.3989560689116693
 30
0.0
  0
SEQEND
  5
835
  8
DEFAULT
  0
LINE
  5
41E
  8
DEFAULT
 10
73.9164241097127501
 20
17.2063440664315088
 30
0.0
 11
73.4317396892799366
 21
15.7146368458918193
 31
0.0
  0
LINE
  5
41F
  8
DEFAULT
 10
73.4317396892799366
 20
15.7146368458918193
 30
0.0
 11
82.0061078607215563
 21
15.7146368458919898
 31
0.0
  0
POLYLINE
  5
420
  8
DEFAULT
 66
     1
 10
0.0
 20
0.0
 30
0.0
  0
VERTEX
  5
421
  8
DEFAULT
 10
74.2944460888629692
 20
17.3989560691737495
 30
0.0
  0
VERTEX
  5
422
  8
DEFAULT
 10
75.2607007704183388
 20
17.0850013050819598
 30
0.0
  0
VERTEX
  5
423
  8
DEFAULT
 10
75.1679957822288429
 20
16.7996843144122998
 30
0.0
  0
VERTEX
  5
424
  8
DEFAULT
 10
74.2017411003009784
 20
17.1136390786250807
 30
0.0
  0
SEQEND
  5
425
  8
DEFAULT
  0
POLYLINE
  5
426
  8
DEFAULT
 66
     1
 10
0.0
 20
0.0
 30
0.0
  0
VERTEX
  5
427
  8
DEFAULT
 10
74.405698007079252
 20
18.7121762631247108
 30
0.0
  0
VERTEX
  5
428
  8
DEFAULT
 10
74.0091290979021892
 20
17.4916610571011901
 30
0.0
  0
SEQEND
  5
429
  8
DEFAULT
  0
LINE
  5
42A
  8
DEFAULT
 10
82.0061078607214995
 20
19.7146368458919916
 30
0.0
 11
74.7314167673526981
 21
19.7146368458918388
 31
0.0
  0
LINE
  5
42B
  8
DEFAULT
 10
74.7314167673526981
 20
19.7146368458918388
 30
0.0
 11
74.4984029952688047
 21
18.9974932537944916
 31
0.0
  0
LINE
  5
42C
  8
DEFAULT
 10
74.7314167673526981
 20
19.7146368458918388
 30
0.0
 11
74.4984029952688047
 21
18.9974932537944916
 31
0.0
  0
LINE
  5
42D
  8
DEFAULT
 10
74.405698007079252
 20
18.7121762631247108
 30
0.0
 11
74.0091290979021892
 21
17.4916610571011901
 31
0.0
  0
LINE
  5
42E
  8
DEFAULT
 10
74.2944460888629692
 20
17.3989560691737495
 30
0.0
 11
75.2607007704183388
 21
17.0850013050819598
 31
0.0
  0
LINE
  5
42F
  8
DEFAULT
 10
75.2607007704183388
 20
17.0850013050819598
 30
0.0
 11
75.1679957822288429
 21
16.7996843144122998
 31
0.0
  0
LINE
  5
430
  8
DEFAULT
 10
75.1679957822288429
 20
16.7996843144122998
 30
0.0
 11
74.2017411003009784
 21
17.1136390786250807
 31
0.0
  0
LINE
  5
431
  8
DEFAULT
 10
73.9164241097127501
 20
17.2063440664315088
 30
0.0
 11
73.4317396892799366
 21
15.7146368458918193
 31
0.0
  0
LINE
  5
432
  8
DEFAULT
 10
77.7967590695272833
 20
17.9257938075355092
 30
0.0
 11
77.2261250881880414
 21
18.1112037839145295
 31
0.0
  0
LINE
  5
433
  8
DEFAULT
 10
76.9408080975182429
 20
18.2039087721040787
 30
0.0
 11
74.4984029952688047
 21
18.99749325379452
 31
0.0
  0
LINE
  5
434
  8
DEFAULT
 10
74.405698007079252
 20
18.7121762631247393
 30
0.0
 11
76.8481031093288607
 21
17.9185917814343689
 31
0.0
  0
LINE
  5
435
  8
DEFAULT
 10
77.1334200999984745
 20
17.8258867932448517
 30
0.0
 11
77.7040540813378016
 21
17.6404768168658492
 31
0.0
  0
LINE
  5
436
  8
DEFAULT
 10
77.7040540813378016
 20
17.6404768168658492
 30
0.0
 11
77.7967590695272833
 21
17.9257938075355092
 31
0.0
  0
LINE
  5
437
  8
DEFAULT
 10
83.206107860721545
 20
19.0646368458920108
 30
0.0
 11
83.5061078607215137
 21
19.0646368458919788
 31
0.0
  0
LINE
  5
438
  8
DEFAULT
 10
83.5061078607215137
 20
19.0646368458919788
 30
0.0
 11
83.5061078607215137
 21
19.3646368458920186
 31
0.0
  0
LINE
  5
439
  8
DEFAULT
 10
83.5061078607215137
 20
19.3646368458920186
 30
0.0
 11
83.7561078607214853
 21
19.3646368458919902
 31
0.0
  0
LINE
  5
43A
  8
DEFAULT
 10
83.7561078607214853
 20
19.3646368458919902
 30
0.0
 11
83.7561078607214853
 21
19.0646368458920108
 31
0.0
  0
LINE
  5
43B
  8
DEFAULT
 10
83.7561078607214853
 20
19.0646368458920108
 30
0.0
 11
84.206107860721545
 21
19.0646368458920108
 31
0.0
  0
LINE
  5
43C
  8
DEFAULT
 10
84.206107860721545
 20
19.7146368458920414
 30
0.0
 11
82.0061078607214995
 21
19.7146368458919916
 31
0.0
  0
LINE
  5
43D
  8
DEFAULT
 10
82.0061078607214995
 20
15.7146368458919898
 30
0.0
 11
84.2061078607214881
 21
15.7146368458919596
 31
0.0
  0
LINE
  5
43E
  8
DEFAULT
 10
84.2061078607214881
 20
16.3646368458919902
 30
0.0
 11
83.7561078607214853
 21
16.3646368458919902
 31
0.0
  0
LINE
  5
43F
  8
DEFAULT
 10
83.7561078607214853
 20
16.3646368458919902
 30
0.0
 11
83.7561078607214853
 21
16.0646368458920108
 31
0.0
  0
LINE
  5
440
  8
DEFAULT
 10
83.7561078607214853
 20
16.0646368458920108
 30
0.0
 11
83.5061078607215137
 21
16.0646368458919788
 31
0.0
  0
LINE
  5
441
  8
DEFAULT
 10
83.5061078607215137
 20
16.0646368458919788
 30
0.0
 11
83.5061078607215137
 21
16.3646368458920186
 31
0.0
  0
LINE
  5
442
  8
DEFAULT
 10
83.5061078607215137
 20
16.3646368458920186
 30
0.0
 11
83.2061078607214881
 21
16.3646368458919902
 31
0.0
  0
POLYLINE
  5
443
  8
DEFAULT
 66
     1
 10
0.0
 20
0.0
 30
0.0
  0
VERTEX
  5
836
  8
DEFAULT
 10
83.5061078607215137
 20
16.3646368458920186
 30
0.0
  0
VERTEX
  5
837
  8
DEFAULT
 10
83.2061078607214881
 20
16.3646368458919902
 30
0.0
  0
VERTEX
  5
838
  8
DEFAULT
 10
83.2061078607214881
 20
16.3046368458920199
 30
0.0
  0
VERTEX
  5
839
  8
DEFAULT
 10
83.0061078607214995
 20
16.3046368458920483
 30
0.0
  0
VERTEX
  5
83A
  8
DEFAULT
 10
83.0061078607214995
 20
16.3646368458919902
 30
0.0
  0
VERTEX
  5
83B
  8
DEFAULT
 10
82.0061078607214995
 20
16.3646368458920186
 30
0.0
  0
VERTEX
  5
83C
  8
DEFAULT
 10
82.0061078607214995
 20
19.0646368458919788
 30
0.0
  0
VERTEX
  5
83D
  8
DEFAULT
 10
83.0061078607215563
 20
19.0646368458919504
 30
0.0
  0
VERTEX
  5
83E
  8
DEFAULT
 10
83.0061078607215563
 20
19.1246368458920095
 30
0.0
  0
VERTEX
  5
83F
  8
DEFAULT
 10
83.2061078607214881
 20
19.1246368458919491
 30
0.0
  0
VERTEX
  5
840
  8
DEFAULT
 10
83.2061078607214881
 20
19.0646368458919504
 30
0.0
  0
VERTEX
  5
841
  8
DEFAULT
 10
83.5061078607215137
 20
19.0646368458919788
 30
0.0
  0
SEQEND
  5
842
  8
DEFAULT
  0
POLYLINE
  5
444
  8
DEFAULT
 66
     1
 10
0.0
 20
0.0
 30
0.0
  0
VERTEX
  5
843
  8
DEFAULT
 10
81.206107860721545
 20
17.8646368458919618
 30
0.0
  0
VERTEX
  5
844
  8
DEFAULT
 10
80.4061078607215904
 20
17.8646368458920186
 30
0.0
  0
VERTEX
  5
845
  8
DEFAULT
 10
81.206107860721545
 20
17.8646368458919618
 30
0.0
  0
VERTEX
  5
846
  8
DEFAULT
 10
81.2061078607214739
 20
17.5646368458920108
 30
0.0
  0
VERTEX
  5
847
  8
DEFAULT
 10
80.4061078607214768
 20
17.5646368458920108
 30
0.0
  0
VERTEX
  5
848
  8
DEFAULT
 10
80.4061078607215336
 20
17.5146368458919994
 30
0.0
  0
VERTEX
  5
849
  8
DEFAULT
 10
78.4061078607215336
 20
17.5146368458920492
 30
0.0
  0
VERTEX
  5
84A
  8
DEFAULT
 10
78.4061078607214768
 20
17.91463684589203
 30
0.0
  0
VERTEX
  5
84B
  8
DEFAULT
 10
80.4061078607214768
 20
17.91463684589203
 30
0.0
  0
VERTEX
  5
84C
  8
DEFAULT
 10
80.4061078607215904
 20
17.8646368458920186
 30
0.0
  0
SEQEND
  5
84D
  8
DEFAULT
  0
POLYLINE
  5
445
  8
DEFAULT
 66
     1
 10
0.0
 20
0.0
 30
0.0
  0
VERTEX
  5
84E
  8
DEFAULT
 10
76.8481031093288038
 20
17.9185917814343405
 30
0.0
  0
VERTEX
  5
84F
  8
DEFAULT
 10
76.8652652979659337
 20
17.9340446974865984
 30
0.0
  0
VERTEX
  5
850
  8
DEFAULT
 10
77.1286185764532775
 20
17.848476142615251
 30
0.0
  0
VERTEX
  5
851
  8
DEFAULT
 10
77.1334200999984745
 20
17.8258867932448517
 30
0.0
  0
SEQEND
  5
852
  8
DEFAULT
  0
POLYLINE
  5
446
  8
DEFAULT
 66
     1
 10
0.0
 20
0.0
 30
0.0
  0
VERTEX
  5
853
  8
DEFAULT
 10
76.9408080975182997
 20
18.2039087721039685
 30
0.0
  0
VERTEX
  5
854
  8
DEFAULT
 10
76.945609621063511
 20
18.181319422733651
 30
0.0
  0
VERTEX
  5
855
  8
DEFAULT
 10
77.2089628995508406
 20
18.0957508678623107
 30
0.0
  0
VERTEX
  5
856
  8
DEFAULT
 10
77.2261250881880414
 20
18.1112037839145295
 30
0.0
  0
SEQEND
  5
857
  8
DEFAULT
  0
POLYLINE
  5
447
  8
DEFAULT
 66
     1
 10
0.0
 20
0.0
 30
0.0
  0
VERTEX
  5
858
  8
DEFAULT
 10
73.9164241097127501
 20
17.2063440664315088
 30
0.0
  0
VERTEX
  5
859
  8
DEFAULT
 10
73.9335862983498942
 20
17.2217969824837702
 30
0.0
  0
VERTEX
  5
85A
  8
DEFAULT
 10
74.1969395767588935
 20
17.1362284279808001
 30
0.0
  0
VERTEX
  5
85B
  8
DEFAULT
 10
74.2017411003823781
 20
17.11363907824202
 30
0.0
  0
SEQEND
  5
85C
  8
DEFAULT
  0
POLYLINE
  5
448
  8
DEFAULT
 66
     1
 10
0.0
 20
0.0
 30
0.0
  0
VERTEX
  5
85D
  8
DEFAULT
 10
74.0091290979021892
 20
17.4916610571011901
 30
0.0
  0
VERTEX
  5
85E
  8
DEFAULT
 10
74.013930621444274
 20
17.4690717077455702
 30
0.0
  0
VERTEX
  5
85F
  8
DEFAULT
 10
74.277283900214627
 20
17.3835031531114907
 30
0.0
  0
VERTEX
  5
860
  8
DEFAULT
 10
74.294446088571874
 20
17.3989560689116693
 30
0.0
  0
SEQEND
  5
861
  8
DEFAULT
  0
LINE
  5
449
  8
DEFAULT
 10
94.4957916117302261
 20
14.2229296253521191
 30
0.0
 11
94.9804760321630539
 21
15.7146368458918193
 31
0.0
  0
POLYLINE
  5
44A
  8
DEFAULT
 66
     1
 10
0.0
 20
0.0
 30
0.0
  0
VERTEX
  5
44B
  8
DEFAULT
 10
94.1177696325800071
 20
14.0303176226098802
 30
0.0
  0
VERTEX
  5
44C
  8
DEFAULT
 10
93.1515149510246374
 20
14.3442723867016699
 30
0.0
  0
VERTEX
  5
44D
  8
DEFAULT
 10
93.2442199392141333
 20
14.6295893773713299
 30
0.0
  0
VERTEX
  5
44E
  8
DEFAULT
 10
94.2104746211419979
 20
14.3156346131585508
 30
0.0
  0
SEQEND
  5
44F
  8
DEFAULT
  0
POLYLINE
  5
450
  8
DEFAULT
 66
     1
 10
0.0
 20
0.0
 30
0.0
  0
VERTEX
  5
451
  8
DEFAULT
 10
94.0065177143637243
 20
12.7170974286589207
 30
0.0
  0
VERTEX
  5
452
  8
DEFAULT
 10
94.4030866235407871
 20
13.9376126346824396
 30
0.0
  0
SEQEND
  5
453
  8
DEFAULT
  0
LINE
  5
454
  8
DEFAULT
 10
86.4061078607214768
 20
11.7146368458916506
 30
0.0
 11
93.6807989540902781
 21
11.7146368458917909
 31
0.0
  0
LINE
  5
455
  8
DEFAULT
 10
93.6807989540902781
 20
11.7146368458917909
 30
0.0
 11
93.9138127261741715
 21
12.4317804379891506
 31
0.0
  0
LINE
  5
456
  8
DEFAULT
 10
93.6807989540902781
 20
11.7146368458917909
 30
0.0
 11
93.9138127261741715
 21
12.4317804379891506
 31
0.0
  0
LINE
  5
457
  8
DEFAULT
 10
94.0065177143637243
 20
12.7170974286589207
 30
0.0
 11
94.4030866235407871
 21
13.9376126346824396
 31
0.0
  0
LINE
  5
458
  8
DEFAULT
 10
94.1177696325800071
 20
14.0303176226098802
 30
0.0
 11
93.1515149510246374
 21
14.3442723867016699
 31
0.0
  0
LINE
  5
459
  8
DEFAULT
 10
93.1515149510246374
 20
14.3442723867016699
 30
0.0
 11
93.2442199392141333
 21
14.6295893773713299
 31
0.0
  0
LINE
  5
45A
  8
DEFAULT
 10
93.2442199392141333
 20
14.6295893773713299
 30
0.0
 11
94.2104746211419979
 21
14.3156346131585508
 31
0.0
  0
LINE
  5
45B
  8
DEFAULT
 10
94.4957916117302261
 20
14.2229296253521191
 30
0.0
 11
94.9804760321630539
 21
15.7146368458918193
 31
0.0
  0
LINE
  5
45C
  8
DEFAULT
 10
90.6154566519156788
 20
13.5034798842481205
 30
0.0
 11
91.1860906332549348
 21
13.3180699078691003
 31
0.0
  0
LINE
  5
45D
  8
DEFAULT
 10
91.4714076239247191
 20
13.2253649196795493
 30
0.0
 11
93.9138127261741715
 21
12.4317804379891204
 31
0.0
  0
LINE
  5
45E
  8
DEFAULT
 10
94.0065177143637243
 20
12.7170974286588905
 30
0.0
 11
91.5641126121141156
 21
13.5106819103492608
 31
0.0
  0
LINE
  5
45F
  8
DEFAULT
 10
91.2787956214444733
 20
13.6033868985387798
 30
0.0
 11
90.7081616401051747
 21
13.7887968749177805
 31
0.0
  0
LINE
  5
460
  8
DEFAULT
 10
90.7081616401051747
 20
13.7887968749177805
 30
0.0
 11
90.6154566519156788
 21
13.5034798842481205
 31
0.0
  0
LINE
  5
461
  8
DEFAULT
 10
85.2061078607214313
 20
12.3646368458916207
 30
0.0
 11
84.9061078607214768
 21
12.3646368458916491
 31
0.0
  0
LINE
  5
462
  8
DEFAULT
 10
84.9061078607214768
 20
12.3646368458916491
 30
0.0
 11
84.9061078607214768
 21
12.0646368458916093
 31
0.0
  0
LINE
  5
463
  8
DEFAULT
 10
84.9061078607214768
 20
12.0646368458916093
 30
0.0
 11
84.6561078607214768
 21
12.0646368458916395
 31
0.0
  0
LINE
  5
464
  8
DEFAULT
 10
84.6561078607214768
 20
12.0646368458916395
 30
0.0
 11
84.6561078607214768
 21
12.3646368458916207
 31
0.0
  0
LINE
  5
465
  8
DEFAULT
 10
84.6561078607214768
 20
12.3646368458916207
 30
0.0
 11
84.2061078607214455
 21
12.3646368458916207
 31
0.0
  0
LINE
  5
466
  8
DEFAULT
 10
84.2061078607214455
 20
12.3646368458916207
 30
0.0
 11
84.2061078607214455
 21
11.7146368458915902
 31
0.0
  0
LINE
  5
467
  8
DEFAULT
 10
84.2061078607214455
 20
11.7146368458915902
 30
0.0
 11
86.4061078607214768
 21
11.7146368458916506
 31
0.0
  0
LINE
  5
468
  8
DEFAULT
 10
84.2061078607214881
 20
15.7146368458916701
 30
0.0
 11
84.2061078607214881
 21
15.0646368458916395
 31
0.0
  0
LINE
  5
469
  8
DEFAULT
 10
84.2061078607214881
 20
15.0646368458916395
 30
0.0
 11
84.6561078607214768
 21
15.0646368458916395
 31
0.0
  0
LINE
  5
46A
  8
DEFAULT
 10
84.6561078607214768
 20
15.0646368458916395
 30
0.0
 11
84.6561078607214768
 21
15.3646368458916207
 31
0.0
  0
LINE
  5
46B
  8
DEFAULT
 10
84.6561078607214768
 20
15.3646368458916207
 30
0.0
 11
84.9061078607214768
 21
15.3646368458916491
 31
0.0
  0
LINE
  5
46C
  8
DEFAULT
 10
84.9061078607214768
 20
15.3646368458916491
 30
0.0
 11
84.9061078607214768
 21
15.0646368458916093
 31
0.0
  0
LINE
  5
46D
  8
DEFAULT
 10
84.9061078607214768
 20
15.0646368458916093
 30
0.0
 11
85.2061078607214881
 21
15.0646368458916395
 31
0.0
  0
POLYLINE
  5
46E
  8
DEFAULT
 66
     1
 10
0.0
 20
0.0
 30
0.0
  0
VERTEX
  5
862
  8
DEFAULT
 10
84.9061078607214768
 20
15.0646368458916093
 30
0.0
  0
VERTEX
  5
863
  8
DEFAULT
 10
85.2061078607214881
 20
15.0646368458916395
 30
0.0
  0
VERTEX
  5
864
  8
DEFAULT
 10
85.2061078607214881
 20
15.1246368458916098
 30
0.0
  0
VERTEX
  5
865
  8
DEFAULT
 10
85.4061078607214768
 20
15.1246368458915903
 30
0.0
  0
VERTEX
  5
866
  8
DEFAULT
 10
85.4061078607214768
 20
15.0646368458916395
 30
0.0
  0
VERTEX
  5
867
  8
DEFAULT
 10
86.4061078607214768
 20
15.0646368458916093
 30
0.0
  0
VERTEX
  5
868
  8
DEFAULT
 10
86.4061078607214768
 20
12.3646368458916491
 30
0.0
  0
VERTEX
  5
869
  8
DEFAULT
 10
85.4061078607214057
 20
12.3646368458916793
 30
0.0
  0
VERTEX
  5
86A
  8
DEFAULT
 10
85.4061078607214057
 20
12.3046368458916202
 30
0.0
  0
VERTEX
  5
86B
  8
DEFAULT
 10
85.2061078607214881
 20
12.3046368458916806
 30
0.0
  0
VERTEX
  5
86C
  8
DEFAULT
 10
85.2061078607214881
 20
12.3646368458916793
 30
0.0
  0
VERTEX
  5
86D
  8
DEFAULT
 10
84.9061078607214768
 20
12.3646368458916491
 30
0.0
  0
SEQEND
  5
86E
  8
DEFAULT
  0
POLYLINE
  5
46F
  8
DEFAULT
 66
     1
 10
0.0
 20
0.0
 30
0.0
  0
VERTEX
  5
86F
  8
DEFAULT
 10
87.2061078607214313
 20
13.5646368458916697
 30
0.0
  0
VERTEX
  5
870
  8
DEFAULT
 10
88.0061078607213858
 20
13.5646368458916093
 30
0.0
  0
VERTEX
  5
871
  8
DEFAULT
 10
87.2061078607214313
 20
13.5646368458916697
 30
0.0
  0
VERTEX
  5
872
  8
DEFAULT
 10
87.2061078607214739
 20
13.8646368458916207
 30
0.0
  0
VERTEX
  5
873
  8
DEFAULT
 10
88.0061078607214995
 20
13.8646368458916207
 30
0.0
  0
VERTEX
  5
874
  8
DEFAULT
 10
88.0061078607214426
 20
13.9146368458916303
 30
0.0
  0
VERTEX
  5
875
  8
DEFAULT
 10
90.0061078607214426
 20
13.9146368458915806
 30
0.0
  0
VERTEX
  5
876
  8
DEFAULT
 10
90.0061078607214853
 20
13.5146368458915997
 30
0.0
  0
VERTEX
  5
877
  8
DEFAULT
 10
88.0061078607214995
 20
13.5146368458915997
 30
0.0
  0
VERTEX
  5
878
  8
DEFAULT
 10
88.0061078607213858
 20
13.5646368458916093
 30
0.0
  0
SEQEND
  5
879
  8
DEFAULT
  0
POLYLINE
  5
470
  8
DEFAULT
 66
     1
 10
0.0
 20
0.0
 30
0.0
  0
VERTEX
  5
87A
  8
DEFAULT
 10
91.5641126121141724
 20
13.5106819103492892
 30
0.0
  0
VERTEX
  5
87B
  8
DEFAULT
 10
91.5469504234770142
 20
13.4952289942970296
 30
0.0
  0
VERTEX
  5
87C
  8
DEFAULT
 10
91.2835971449896846
 20
13.5807975491683806
 30
0.0
  0
VERTEX
  5
87D
  8
DEFAULT
 10
91.2787956214444733
 20
13.6033868985387798
 30
0.0
  0
SEQEND
  5
87E
  8
DEFAULT
  0
POLYLINE
  5
471
  8
DEFAULT
 66
     1
 10
0.0
 20
0.0
 30
0.0
  0
VERTEX
  5
87F
  8
DEFAULT
 10
91.4714076239246765
 20
13.2253649196796594
 30
0.0
  0
VERTEX
  5
880
  8
DEFAULT
 10
91.4666061003794653
 20
13.2479542690499805
 30
0.0
  0
VERTEX
  5
881
  8
DEFAULT
 10
91.2032528218921357
 20
13.3335228239213297
 30
0.0
  0
VERTEX
  5
882
  8
DEFAULT
 10
91.1860906332549348
 20
13.3180699078691003
 30
0.0
  0
SEQEND
  5
883
  8
DEFAULT
  0
POLYLINE
  5
472
  8
DEFAULT
 66
     1
 10
0.0
 20
0.0
 30
0.0
  0
VERTEX
  5
884
  8
DEFAULT
 10
94.4957916117302261
 20
14.2229296253521191
 30
0.0
  0
VERTEX
  5
885
  8
DEFAULT
 10
94.4786294230930821
 20
14.2074767092998702
 30
0.0
  0
VERTEX
  5
886
  8
DEFAULT
 10
94.2152761446840685
 20
14.2930452638028402
 30
0.0
  0
VERTEX
  5
887
  8
DEFAULT
 10
94.2104746210605839
 20
14.3156346135416204
 30
0.0
  0
SEQEND
  5
888
  8
DEFAULT
  0
POLYLINE
  5
473
  8
DEFAULT
 66
     1
 10
0.0
 20
0.0
 30
0.0
  0
VERTEX
  5
889
  8
DEFAULT
 10
94.4030866235407871
 20
13.9376126346824396
 30
0.0
  0
VERTEX
  5
88A
  8
DEFAULT
 10
94.3982850999987022
 20
13.9602019840380596
 30
0.0
  0
VERTEX
  5
88B
  8
DEFAULT
 10
94.134931821228335
 20
14.0457705386721408
 30
0.0
  0
VERTEX
  5
88C
  8
DEFAULT
 10
94.1177696328711022
 20
14.0303176228719604
 30
0.0
  0
SEQEND
  5
88D
  8
DEFAULT
  0
LINE
  5
474
  8
DEFAULT
 10
73.9164241097127501
 20
14.2229296253521191
 30
0.0
 11
73.4317396892799366
 21
15.7146368458918193
 31
0.0
  0
POLYLINE
  5
475
  8
DEFAULT
 66
     1
 10
0.0
 20
0.0
 30
0.0
  0
VERTEX
  5
476
  8
DEFAULT
 10
74.2944460888629692
 20
14.0303176226098802
 30
0.0
  0
VERTEX
  5
477
  8
DEFAULT
 10
75.2607007704183388
 20
14.3442723867016699
 30
0.0
  0
VERTEX
  5
478
  8
DEFAULT
 10
75.1679957822288429
 20
14.6295893773713299
 30
0.0
  0
VERTEX
  5
479
  8
DEFAULT
 10
74.2017411003009784
 20
14.3156346131585508
 30
0.0
  0
SEQEND
  5
47A
  8
DEFAULT
  0
POLYLINE
  5
47B
  8
DEFAULT
 66
     1
 10
0.0
 20
0.0
 30
0.0
  0
VERTEX
  5
47C
  8
DEFAULT
 10
74.405698007079252
 20
12.7170974286589207
 30
0.0
  0
VERTEX
  5
47D
  8
DEFAULT
 10
74.0091290979021892
 20
13.9376126346824396
 30
0.0
  0
SEQEND
  5
47E
  8
DEFAULT
  0
LINE
  5
47F
  8
DEFAULT
 10
82.0061078607214995
 20
11.7146368458916506
 30
0.0
 11
74.7314167673526981
 21
11.7146368458917909
 31
0.0
  0
LINE
  5
480
  8
DEFAULT
 10
74.7314167673526981
 20
11.7146368458917909
 30
0.0
 11
74.4984029952688047
 21
12.4317804379891506
 31
0.0
  0
LINE
  5
481
  8
DEFAULT
 10
74.7314167673526981
 20
11.7146368458917909
 30
0.0
 11
74.4984029952688047
 21
12.4317804379891506
 31
0.0
  0
LINE
  5
482
  8
DEFAULT
 10
74.405698007079252
 20
12.7170974286589207
 30
0.0
 11
74.0091290979021892
 21
13.9376126346824396
 31
0.0
  0
LINE
  5
483
  8
DEFAULT
 10
74.2944460888629692
 20
14.0303176226098802
 30
0.0
 11
75.2607007704183388
 21
14.3442723867016699
 31
0.0
  0
LINE
  5
484
  8
DEFAULT
 10
75.2607007704183388
 20
14.3442723867016699
 30
0.0
 11
75.1679957822288429
 21
14.6295893773713299
 31
0.0
  0
LINE
  5
485
  8
DEFAULT
 10
75.1679957822288429
 20
14.6295893773713299
 30
0.0
 11
74.2017411003009784
 21
14.3156346131585508
 31
0.0
  0
LINE
  5
486
  8
DEFAULT
 10
73.9164241097127501
 20
14.2229296253521191
 30
0.0
 11
73.4317396892799366
 21
15.7146368458918193
 31
0.0
  0
LINE
  5
487
  8
DEFAULT
 10
77.7967590695272833
 20
13.5034798842481205
 30
0.0
 11
77.2261250881880414
 21
13.3180699078691003
 31
0.0
  0
LINE
  5
488
  8
DEFAULT
 10
76.9408080975182429
 20
13.2253649196795493
 30
0.0
 11
74.4984029952688047
 21
12.4317804379891204
 31
0.0
  0
LINE
  5
489
  8
DEFAULT
 10
74.405698007079252
 20
12.7170974286588905
 30
0.0
 11
76.8481031093288607
 21
13.5106819103492608
 31
0.0
  0
LINE
  5
48A
  8
DEFAULT
 10
77.1334200999984745
 20
13.6033868985387798
 30
0.0
 11
77.7040540813378016
 21
13.7887968749177805
 31
0.0
  0
LINE
  5
48B
  8
DEFAULT
 10
77.7040540813378016
 20
13.7887968749177805
 30
0.0
 11
77.7967590695272833
 21
13.5034798842481205
 31
0.0
  0
LINE
  5
48C
  8
DEFAULT
 10
83.206107860721545
 20
12.3646368458916207
 30
0.0
 11
83.5061078607215137
 21
12.3646368458916491
 31
0.0
  0
LINE
  5
48D
  8
DEFAULT
 10
83.5061078607215137
 20
12.3646368458916491
 30
0.0
 11
83.5061078607215137
 21
12.0646368458916093
 31
0.0
  0
LINE
  5
48E
  8
DEFAULT
 10
83.5061078607215137
 20
12.0646368458916093
 30
0.0
 11
83.7561078607214853
 21
12.0646368458916395
 31
0.0
  0
LINE
  5
48F
  8
DEFAULT
 10
83.7561078607214853
 20
12.0646368458916395
 30
0.0
 11
83.7561078607214853
 21
12.3646368458916207
 31
0.0
  0
LINE
  5
490
  8
DEFAULT
 10
83.7561078607214853
 20
12.3646368458916207
 30
0.0
 11
84.206107860721545
 21
12.3646368458916207
 31
0.0
  0
LINE
  5
491
  8
DEFAULT
 10
84.206107860721545
 20
11.7146368458915902
 30
0.0
 11
82.0061078607214995
 21
11.7146368458916506
 31
0.0
  0
LINE
  5
492
  8
DEFAULT
 10
84.2061078607214881
 20
15.0646368458916395
 30
0.0
 11
83.7561078607214853
 21
15.0646368458916395
 31
0.0
  0
LINE
  5
493
  8
DEFAULT
 10
83.7561078607214853
 20
15.0646368458916395
 30
0.0
 11
83.7561078607214853
 21
15.3646368458916207
 31
0.0
  0
LINE
  5
494
  8
DEFAULT
 10
83.7561078607214853
 20
15.3646368458916207
 30
0.0
 11
83.5061078607215137
 21
15.3646368458916491
 31
0.0
  0
LINE
  5
495
  8
DEFAULT
 10
83.5061078607215137
 20
15.3646368458916491
 30
0.0
 11
83.5061078607215137
 21
15.0646368458916093
 31
0.0
  0
LINE
  5
496
  8
DEFAULT
 10
83.5061078607215137
 20
15.0646368458916093
 30
0.0
 11
83.2061078607214881
 21
15.0646368458916395
 31
0.0
  0
POLYLINE
  5
497
  8
DEFAULT
 66
     1
 10
0.0
 20
0.0
 30
0.0
  0
VERTEX
  5
88E
  8
DEFAULT
 10
83.5061078607215137
 20
15.0646368458916093
 30
0.0
  0
VERTEX
  5
88F
  8
DEFAULT
 10
83.2061078607214881
 20
15.0646368458916395
 30
0.0
  0
VERTEX
  5
890
  8
DEFAULT
 10
83.2061078607214881
 20
15.1246368458916098
 30
0.0
  0
VERTEX
  5
891
  8
DEFAULT
 10
83.0061078607214995
 20
15.1246368458915903
 30
0.0
  0
VERTEX
  5
892
  8
DEFAULT
 10
83.0061078607214995
 20
15.0646368458916395
 30
0.0
  0
VERTEX
  5
893
  8
DEFAULT
 10
82.0061078607214995
 20
15.0646368458916093
 30
0.0
  0
VERTEX
  5
894
  8
DEFAULT
 10
82.0061078607214995
 20
12.3646368458916491
 30
0.0
  0
VERTEX
  5
895
  8
DEFAULT
 10
83.0061078607215563
 20
12.3646368458916793
 30
0.0
  0
VERTEX
  5
896
  8
DEFAULT
 10
83.0061078607215563
 20
12.3046368458916202
 30
0.0
  0
VERTEX
  5
897
  8
DEFAULT
 10
83.2061078607214881
 20
12.3046368458916806
 30
0.0
  0
VERTEX
  5
898
  8
DEFAULT
 10
83.2061078607214881
 20
12.3646368458916793
 30
0.0
  0
VERTEX
  5
899
  8
DEFAULT
 10
83.5061078607215137
 20
12.3646368458916491
 30
0.0
  0
SEQEND
  5
89A
  8
DEFAULT
  0
POLYLINE
  5
498
  8
DEFAULT
 66
     1
 10
0.0
 20
0.0
 30
0.0
  0
VERTEX
  5
89B
  8
DEFAULT
 10
81.206107860721545
 20
13.5646368458916697
 30
0.0
  0
VERTEX
  5
89C
  8
DEFAULT
 10
80.4061078607215904
 20
13.5646368458916093
 30
0.0
  0
VERTEX
  5
89D
  8
DEFAULT
 10
81.206107860721545
 20
13.5646368458916697
 30
0.0
  0
VERTEX
  5
89E
  8
DEFAULT
 10
81.2061078607214739
 20
13.8646368458916207
 30
0.0
  0
VERTEX
  5
89F
  8
DEFAULT
 10
80.4061078607214768
 20
13.8646368458916207
 30
0.0
  0
VERTEX
  5
8A0
  8
DEFAULT
 10
80.4061078607215336
 20
13.9146368458916303
 30
0.0
  0
VERTEX
  5
8A1
  8
DEFAULT
 10
78.4061078607215336
 20
13.9146368458915806
 30
0.0
  0
VERTEX
  5
8A2
  8
DEFAULT
 10
78.4061078607214768
 20
13.5146368458915997
 30
0.0
  0
VERTEX
  5
8A3
  8
DEFAULT
 10
80.4061078607214768
 20
13.5146368458915997
 30
0.0
  0
VERTEX
  5
8A4
  8
DEFAULT
 10
80.4061078607215904
 20
13.5646368458916093
 30
0.0
  0
SEQEND
  5
8A5
  8
DEFAULT
  0
POLYLINE
  5
499
  8
DEFAULT
 66
     1
 10
0.0
 20
0.0
 30
0.0
  0
VERTEX
  5
8A6
  8
DEFAULT
 10
76.8481031093288038
 20
13.5106819103492892
 30
0.0
  0
VERTEX
  5
8A7
  8
DEFAULT
 10
76.8652652979659337
 20
13.4952289942970296
 30
0.0
  0
VERTEX
  5
8A8
  8
DEFAULT
 10
77.1286185764532775
 20
13.5807975491683806
 30
0.0
  0
VERTEX
  5
8A9
  8
DEFAULT
 10
77.1334200999984745
 20
13.6033868985387798
 30
0.0
  0
SEQEND
  5
8AA
  8
DEFAULT
  0
POLYLINE
  5
49A
  8
DEFAULT
 66
     1
 10
0.0
 20
0.0
 30
0.0
  0
VERTEX
  5
8AB
  8
DEFAULT
 10
76.9408080975182997
 20
13.2253649196796594
 30
0.0
  0
VERTEX
  5
8AC
  8
DEFAULT
 10
76.945609621063511
 20
13.2479542690499805
 30
0.0
  0
VERTEX
  5
8AD
  8
DEFAULT
 10
77.2089628995508406
 20
13.3335228239213297
 30
0.0
  0
VERTEX
  5
8AE
  8
DEFAULT
 10
77.2261250881880414
 20
13.3180699078691003
 30
0.0
  0
SEQEND
  5
8AF
  8
DEFAULT
  0
POLYLINE
  5
49B
  8
DEFAULT
 66
     1
 10
0.0
 20
0.0
 30
0.0
  0
VERTEX
  5
8B0
  8
DEFAULT
 10
73.9164241097127501
 20
14.2229296253521191
 30
0.0
  0
VERTEX
  5
8B1
  8
DEFAULT
 10
73.9335862983498942
 20
14.2074767092998702
 30
0.0
  0
VERTEX
  5
8B2
  8
DEFAULT
 10
74.1969395767588935
 20
14.2930452638028402
 30
0.0
  0
VERTEX
  5
8B3
  8
DEFAULT
 10
74.2017411003823781
 20
14.3156346135416204
 30
0.0
  0
SEQEND
  5
8B4
  8
DEFAULT
  0
POLYLINE
  5
49C
  8
DEFAULT
 66
     1
 10
0.0
 20
0.0
 30
0.0
  0
VERTEX
  5
8B5
  8
DEFAULT
 10
74.0091290979021892
 20
13.9376126346824396
 30
0.0
  0
VERTEX
  5
8B6
  8
DEFAULT
 10
74.013930621444274
 20
13.9602019840380596
 30
0.0
  0
VERTEX
  5
8B7
  8
DEFAULT
 10
74.277283900214627
 20
14.0457705386721408
 30
0.0
  0
VERTEX
  5
8B8
  8
DEFAULT
 10
74.294446088571874
 20
14.0303176228719604
 30
0.0
  0
SEQEND
  5
8B9
  8
DEFAULT
  0
LINE
  5
49D
  8
DEFAULT
 10
92.9085912738006385
 20
24.1516665368735097
 30
0.0
 11
92.4025918097746057
 21
25.7089559073632508
 31
0.0
  0
LINE
  5
49E
  8
DEFAULT
 10
92.0221691080780033
 20
25.585349402414689
 30
0.0
 11
91.7361529263699254
 21
25.4924173549265483
 31
0.0
  0
LINE
  5
49F
  8
DEFAULT
 10
91.7361529263699254
 20
25.4924173549265483
 30
0.0
 11
91.6434480320700544
 21
25.7777343761027886
 31
0.0
  0
LINE
  5
4A0
  8
DEFAULT
 10
91.6434480320700544
 20
25.7777343761027886
 30
0.0
 11
91.9294571252857367
 21
25.87066413768963
 31
0.0
  0
LINE
  5
4A1
  8
DEFAULT
 10
92.3098829012177049
 20
25.9942716645042005
 30
0.0
 11
91.9132615884563933
 21
27.2147698420434416
 31
0.0
  0
LINE
  5
4A2
  8
DEFAULT
 10
91.820544349895556
 20
27.5000828523358187
 30
0.0
 11
91.6088013373085346
 21
28.1516664981310214
 31
0.0
  0
LINE
  5
4A3
  8
DEFAULT
 10
92.9085912738006385
 20
24.1516665368735097
 30
0.0
 11
92.4025918097746057
 21
25.7089559073632508
 31
0.0
  0
LINE
  5
4A4
  8
DEFAULT
 10
92.117274780491357
 20
25.6162510276735702
 30
0.0
 11
91.7361529263699254
 21
25.4924173549265483
 31
0.0
  0
LINE
  5
4A5
  8
DEFAULT
 10
92.3854296239826454
 20
25.724408834746221
 30
0.0
 11
92.1220763126310089
 21
25.6388403809247087
 31
0.0
  0
LINE
  5
4A6
  8
DEFAULT
 10
91.7361529263699254
 20
25.4924173549265483
 30
0.0
 11
91.6434480320700544
 21
25.7777343761027886
 31
0.0
  0
LINE
  5
4A7
  8
DEFAULT
 10
91.6434480320700544
 20
25.7777343761027886
 30
0.0
 11
92.0245627990114485
 21
25.9015657691221008
 31
0.0
  0
LINE
  5
4A8
  8
DEFAULT
 10
92.0417249825632666
 20
25.8861128474221687
 30
0.0
 11
92.3050821405148554
 21
25.9716825669910882
 31
0.0
  0
LINE
  5
4A9
  8
DEFAULT
 10
92.3098829012177049
 20
25.9942716645042005
 30
0.0
 11
91.9132615884563933
 21
27.2147698420434416
 31
0.0
  0
LINE
  5
4AA
  8
DEFAULT
 10
91.820544349895556
 20
27.5000828523358187
 30
0.0
 11
91.6088013373085346
 21
28.1516664981310214
 31
0.0
  0
LINE
  5
4AB
  8
DEFAULT
 10
89.8834562123641945
 20
26.5552477004592902
 30
0.0
 11
89.7907513180644372
 21
26.84056472163536
 31
0.0
  0
LINE
  5
4AC
  8
DEFAULT
 10
89.7907513180644372
 20
26.84056472163536
 30
0.0
 11
90.0760683392406349
 21
26.9332696159351599
 31
0.0
  0
LINE
  5
4AD
  8
DEFAULT
 10
90.3613853604168753
 20
27.0259745102349598
 30
0.0
 11
90.6142144008295531
 21
27.1081234453764708
 31
0.0
  0
LINE
  5
4AE
  8
DEFAULT
 10
90.093230522792453
 20
26.9178166942352917
 30
0.0
 11
90.356583829437966
 21
27.0033851624445482
 31
0.0
  0
LINE
  5
4AF
  8
DEFAULT
 10
90.7069191482324868
 20
26.8228063764706803
 30
0.0
 11
90.454090254716732
 21
26.7406574890588402
 31
0.0
  0
LINE
  5
4B0
  8
DEFAULT
 10
90.1687732335404348
 20
26.6479525947589799
 30
0.0
 11
89.8834562123641945
 21
26.5552477004592902
 31
0.0
  0
LINE
  5
4B1
  8
DEFAULT
 10
90.4369280711649139
 20
26.7561104107587084
 30
0.0
 11
90.1735747645192873
 21
26.6705419425493915
 31
0.0
  0
LINE
  5
4B2
  8
DEFAULT
 10
85.4450675030000752
 20
24.8016665027086596
 30
0.0
 11
85.1450675030000639
 21
24.8016665013353794
 31
0.0
  0
LINE
  5
4B3
  8
DEFAULT
 10
85.1450675030000639
 20
24.8016665013353794
 30
0.0
 11
85.145067504373344
 21
24.5016665013353112
 31
0.0
  0
LINE
  5
4B4
  8
DEFAULT
 10
85.145067504373344
 20
24.5016665013353112
 30
0.0
 11
84.895067504373344
 21
24.5016665001909395
 31
0.0
  0
LINE
  5
4B5
  8
DEFAULT
 10
84.895067504373344
 20
24.5016665001909395
 30
0.0
 11
84.8950675030000639
 21
24.8016665001909509
 31
0.0
  0
LINE
  5
4B6
  8
DEFAULT
 10
84.8950675030000639
 20
24.8016665001909509
 30
0.0
 11
84.4450675030000752
 21
24.8016664981309987
 31
0.0
  0
LINE
  5
4B7
  8
DEFAULT
 10
84.4450675030000752
 20
24.8016664981309987
 30
0.0
 11
84.4450675059754872
 21
24.1516664981310214
 31
0.0
  0
LINE
  5
4B8
  8
DEFAULT
 10
84.4450675059754872
 20
24.1516664981310214
 30
0.0
 11
92.9085912738006385
 21
24.1516665368735097
 31
0.0
  0
LINE
  5
4B9
  8
DEFAULT
 10
91.6088013266536336
 20
28.1516665309235883
 30
0.0
 11
84.4450674876651703
 21
28.1516664981310214
 31
0.0
  0
LINE
  5
4BA
  8
DEFAULT
 10
84.4450674876651703
 20
28.1516664981310214
 30
0.0
 11
84.4450674906406107
 21
27.5016664981310512
 31
0.0
  0
LINE
  5
4BB
  8
DEFAULT
 10
84.4450674906406107
 20
27.5016664981310512
 30
0.0
 11
84.8950674906405993
 21
27.5016665001909395
 31
0.0
  0
LINE
  5
4BC
  8
DEFAULT
 10
84.8950674906405993
 20
27.5016665001909395
 30
0.0
 11
84.8950674892673334
 21
27.8016665001909509
 31
0.0
  0
LINE
  5
4BD
  8
DEFAULT
 10
84.8950674892673334
 20
27.8016665001909509
 30
0.0
 11
85.1450674892673192
 21
27.801666501335319
 31
0.0
  0
LINE
  5
4BE
  8
DEFAULT
 10
85.1450674892673192
 20
27.801666501335319
 30
0.0
 11
85.1450674906405851
 21
27.5016665013353609
 31
0.0
  0
LINE
  5
4BF
  8
DEFAULT
 10
85.1450674906405851
 20
27.5016665013353609
 30
0.0
 11
85.4450674906405965
 21
27.5016665027086518
 31
0.0
  0
POLYLINE
  5
4C0
  8
DEFAULT
 66
     1
 10
0.0
 20
0.0
 30
0.0
  0
VERTEX
  5
8BA
  8
DEFAULT
 10
85.1450674906405851
 20
27.5016665013353609
 30
0.0
  0
VERTEX
  5
8BB
  8
DEFAULT
 10
85.4450674906405965
 20
27.5016665027086518
 30
0.0
  0
VERTEX
  5
8BC
  8
DEFAULT
 10
85.4450674903659433
 20
27.5616665027085901
 30
0.0
  0
VERTEX
  5
8BD
  8
DEFAULT
 10
85.6450674903659888
 20
27.5616665036241706
 30
0.0
  0
VERTEX
  5
8BE
  8
DEFAULT
 10
85.6450674906405425
 20
27.5016665036241612
 30
0.0
  0
VERTEX
  5
8BF
  8
DEFAULT
 10
86.6450674906405851
 20
27.5016665082017084
 30
0.0
  0
VERTEX
  5
8C0
  8
DEFAULT
 10
86.6450675030000639
 20
24.8016665082017198
 30
0.0
  0
VERTEX
  5
8C1
  8
DEFAULT
 10
85.6450675030000639
 20
24.8016665036241797
 30
0.0
  0
VERTEX
  5
8C2
  8
DEFAULT
 10
85.6450675032746744
 20
24.741666503624181
 30
0.0
  0
VERTEX
  5
8C3
  8
DEFAULT
 10
85.4450675032747426
 20
24.7416665027086502
 30
0.0
  0
VERTEX
  5
8C4
  8
DEFAULT
 10
85.4450675030000752
 20
24.8016665027086596
 30
0.0
  0
VERTEX
  5
8C5
  8
DEFAULT
 10
85.1450675030000639
 20
24.8016665013353794
 30
0.0
  0
SEQEND
  5
8C6
  8
DEFAULT
  0
POLYLINE
  5
4C1
  8
DEFAULT
 66
     1
 10
0.0
 20
0.0
 30
0.0
  0
VERTEX
  5
8C7
  8
DEFAULT
 10
87.4450674975069546
 20
26.0016665118637889
 30
0.0
  0
VERTEX
  5
8C8
  8
DEFAULT
 10
88.245067497506966
 20
26.0016665155258089
 30
0.0
  0
VERTEX
  5
8C9
  8
DEFAULT
 10
87.4450674975069546
 20
26.0016665118637889
 30
0.0
  0
VERTEX
  5
8CA
  8
DEFAULT
 10
87.4450674961337313
 20
26.3016665118638002
 30
0.0
  0
VERTEX
  5
8CB
  8
DEFAULT
 10
88.2450674961336858
 20
26.3016665155258806
 30
0.0
  0
VERTEX
  5
8CC
  8
DEFAULT
 10
88.2450674959047774
 20
26.3516665155258387
 30
0.0
  0
VERTEX
  5
8CD
  8
DEFAULT
 10
90.2450674959047632
 20
26.3516665246810398
 30
0.0
  0
VERTEX
  5
8CE
  8
DEFAULT
 10
90.2450674977358176
 20
25.9516665246809985
 30
0.0
  0
VERTEX
  5
8CF
  8
DEFAULT
 10
88.2450674977358034
 20
25.9516665155258615
 30
0.0
  0
VERTEX
  5
8D0
  8
DEFAULT
 10
88.245067497506966
 20
26.0016665155258089
 30
0.0
  0
SEQEND
  5
8D1
  8
DEFAULT
  0
LINE
  5
4C2
  8
DEFAULT
 10
92.0245627990114485
 20
25.9015657691221008
 30
0.0
 11
92.0417249825632666
 21
25.8861128474221687
 31
0.0
  0
LINE
  5
4C3
  8
DEFAULT
 10
92.3098836714937647
 20
25.9942719147813897
 30
0.0
 11
92.3050821405147985
 21
25.9716825669911486
 31
0.0
  0
LINE
  5
4C4
  8
DEFAULT
 10
92.117274780491357
 20
25.6162510276735702
 30
0.0
 11
92.1220763126310089
 21
25.6388403809247087
 31
0.0
  0
LINE
  5
4C5
  8
DEFAULT
 10
92.4025918080761244
 20
25.7089559125585687
 30
0.0
 11
92.3854296239825885
 21
25.724408834746221
 31
0.0
  0
LINE
  5
4C6
  8
DEFAULT
 10
90.0760683392406349
 20
26.9332696159351599
 30
0.0
 11
90.093230522792453
 21
26.9178166942352917
 31
0.0
  0
LINE
  5
4C7
  8
DEFAULT
 10
90.3613853604168753
 20
27.0259745102349598
 30
0.0
 11
90.356583829437966
 21
27.0033851624444914
 31
0.0
  0
LINE
  5
4C8
  8
DEFAULT
 10
90.1687732335404348
 20
26.6479525947590403
 30
0.0
 11
90.1735747645193442
 21
26.6705419425494483
 31
0.0
  0
LINE
  5
4C9
  8
DEFAULT
 10
90.4540902547166041
 20
26.74065748905889
 30
0.0
 11
90.4369280711649139
 21
26.7561104107586516
 31
0.0
  0
LINE
  5
4CA
  8
DEFAULT
 10
90.7069191482324868
 20
26.8228063764706803
 30
0.0
 11
91.9132615884563933
 21
27.2147698420434416
 31
0.0
  0
LINE
  5
4CB
  8
DEFAULT
 10
90.6142144008295531
 20
27.1081234453764708
 30
0.0
 11
91.820544349895556
 21
27.5000828523358187
 31
0.0
  0
TEXT
  5
4CC
  8
DEFAULT
 10
68.9131693715020646
 20
24.4965741907253083
 30
0.0
 40
2.6579234904193072
  1
25
  0
TEXT
  5
4D1
  8
DEFAULT
 10
109.0093440079665044
 20
27.5471185359715101
 30
0.0
 40
2.6579234904193072
  1
11
  0
LINE
  5
532
  8
DEFAULT
 10
117.2533751312900989
 20
25.8610003635769203
 30
0.0
 11
117.2533751312902979
 21
24.9699817427777511
 31
0.0
  0
LINE
  5
533
  8
DEFAULT
 10
117.2533751312902979
 20
24.9699817427777511
 30
0.0
 11
117.5533751312901956
 21
24.9699817427777511
 31
0.0
  0
LINE
  5
534
  8
DEFAULT
 10
117.5533751312901956
 20
24.9699817427777511
 30
0.0
 11
117.5533751312901956
 21
25.8610003635769203
 31
0.0
  0
LINE
  5
535
  8
DEFAULT
 10
119.9808582941310959
 20
24.0973306097560602
 30
0.0
 11
119.1334492286797939
 21
23.8219907136245297
 31
0.0
  0
LINE
  5
536
  8
DEFAULT
 10
119.1334492286797939
 20
23.8219907136245297
 30
0.0
 11
119.226154326992301
 21
23.5366737587359616
 31
0.0
  0
LINE
  5
537
  8
DEFAULT
 10
119.226154326992301
 20
23.5366737587359616
 30
0.0
 11
120.0735633924437025
 21
23.8120136548674886
 31
0.0
  0
LINE
  5
538
  8
DEFAULT
 10
119.1463473313565942
 20
20.9583360482550383
 30
0.0
 11
118.622619726532804
 21
21.6791852547860913
 31
0.0
  0
LINE
  5
539
  8
DEFAULT
 10
118.622619726532804
 20
21.6791852547860913
 30
0.0
 11
118.3799146282203054
 21
21.5028496790983503
 31
0.0
  0
LINE
  5
53A
  8
DEFAULT
 10
118.3799146282203054
 20
21.5028496790983503
 30
0.0
 11
118.9036422330440956
 21
20.7820004725671801
 31
0.0
  0
LINE
  5
53B
  8
DEFAULT
 10
115.9031080295363978
 20
20.7820004725671801
 30
0.0
 11
116.4268356343601027
 21
21.5028496790983503
 31
0.0
  0
LINE
  5
53C
  8
DEFAULT
 10
116.4268356343601027
 20
21.5028496790983503
 30
0.0
 11
116.1841305360476042
 21
21.6791852547860913
 31
0.0
  0
LINE
  5
53D
  8
DEFAULT
 10
116.1841305360476042
 20
21.6791852547860913
 30
0.0
 11
115.6604029312238993
 21
20.958336048254921
 31
0.0
  0
LINE
  5
53E
  8
DEFAULT
 10
114.7331868701367057
 20
23.8120136548673713
 30
0.0
 11
115.580595935588093
 21
23.5366737587359616
 31
0.0
  0
LINE
  5
53F
  8
DEFAULT
 10
115.580595935588093
 20
23.5366737587359616
 30
0.0
 11
115.6733010339006
 21
23.8219907136245297
 31
0.0
  0
LINE
  5
540
  8
DEFAULT
 10
115.6733010339006
 20
23.8219907136245297
 30
0.0
 11
114.8258919684490991
 21
24.0973306097559394
 31
0.0
  0
LINE
  5
541
  8
DEFAULT
 10
112.7980925498144984
 20
24.7562025808801387
 30
0.0
 11
117.2533751312902979
 21
27.9931548506037302
 31
0.0
  0
LINE
  5
542
  8
DEFAULT
 10
117.2533751312902979
 20
27.9931548506037302
 30
0.0
 11
117.2533751312902979
 21
27.1021362298044401
 31
0.0
  0
LINE
  5
543
  8
DEFAULT
 10
117.2533751312902979
 20
27.1021362298044401
 30
0.0
 11
117.553375131290295
 21
27.1021362298044401
 31
0.0
  0
LINE
  5
544
  8
DEFAULT
 10
117.553375131290295
 20
27.1021362298044401
 30
0.0
 11
117.553375131290295
 21
27.9931548506037302
 31
0.0
  0
LINE
  5
545
  8
DEFAULT
 10
117.553375131290295
 20
27.9931548506037302
 30
0.0
 11
122.008657712765995
 21
24.7562025808800286
 31
0.0
  0
LINE
  5
546
  8
DEFAULT
 10
122.008657712765995
 20
24.7562025808800286
 30
0.0
 11
121.1612486473145935
 21
24.4808626847486188
 31
0.0
  0
LINE
  5
547
  8
DEFAULT
 10
121.1612486473145935
 20
24.4808626847486188
 30
0.0
 11
121.2539537456271006
 21
24.1955457298599299
 31
0.0
  0
LINE
  5
548
  8
DEFAULT
 10
121.2539537456271006
 20
24.1955457298599299
 30
0.0
 11
122.1320690405645024
 21
24.4808626847486188
 31
0.0
  0
LINE
  5
549
  8
DEFAULT
 10
122.1320690405645024
 20
24.4808626847486188
 30
0.0
 11
120.3995962944402009
 21
19.2333868336175406
 31
0.0
  0
LINE
  5
54A
  8
DEFAULT
 10
120.3995962944402009
 20
19.2333868336175406
 30
0.0
 11
119.8706234394205978
 21
19.9380928199718106
 31
0.0
  0
LINE
  5
54B
  8
DEFAULT
 10
119.8706234394205978
 20
19.9380928199718106
 30
0.0
 11
119.6254061755944065
 21
19.7540255938407086
 31
0.0
  0
LINE
  5
54C
  8
DEFAULT
 10
119.6254061755944065
 20
19.7540255938407086
 30
0.0
 11
120.138600150757199
 21
19.0703404802729288
 31
0.0
  0
LINE
  5
54D
  8
DEFAULT
 10
120.138600150757199
 20
19.0703404802729288
 30
0.0
 11
114.6498590664528052
 21
19.0570512579297997
 31
0.0
  0
LINE
  5
54E
  8
DEFAULT
 10
114.6498590664528052
 20
19.0570512579297997
 30
0.0
 11
115.173586671276496
 21
19.7779004644609699
 31
0.0
  0
LINE
  5
54F
  8
DEFAULT
 10
115.173586671276496
 20
19.7779004644609699
 30
0.0
 11
114.9308815729640969
 21
19.9542360401486008
 31
0.0
  0
LINE
  5
550
  8
DEFAULT
 10
114.9308815729640969
 20
19.9542360401486008
 30
0.0
 11
114.4071539681404062
 21
19.2333868336175406
 31
0.0
  0
LINE
  5
551
  8
DEFAULT
 10
114.4071539681404062
 20
19.2333868336175406
 30
0.0
 11
112.7053874515019061
 21
24.4708856259914604
 31
0.0
  0
LINE
  5
552
  8
DEFAULT
 10
112.7053874515019061
 20
24.4708856259914604
 30
0.0
 11
113.552796516953407
 21
24.1955457298601608
 31
0.0
  0
LINE
  5
553
  8
DEFAULT
 10
113.552796516953407
 20
24.1955457298601608
 30
0.0
 11
113.6455016152658004
 21
24.4808626847486188
 31
0.0
  0
LINE
  5
554
  8
DEFAULT
 10
113.6455016152658004
 20
24.4808626847486188
 30
0.0
 11
112.7980925498144984
 21
24.7562025808801387
 31
0.0
  0
LINE
  5
555
  8
DEFAULT
 10
114.8258919684491985
 20
24.0973306097559394
 30
0.0
 11
117.2533751312901984
 21
25.8610003635769203
 31
0.0
  0
LINE
  5
556
  8
DEFAULT
 10
117.553375131290295
 20
25.8610003635769203
 30
0.0
 11
119.9808582941310959
 21
24.0973306097561704
 31
0.0
  0
LINE
  5
557
  8
DEFAULT
 10
120.0735633924438019
 20
23.8120136548675987
 30
0.0
 11
119.1463473313564947
 21
20.9583360482550383
 31
0.0
  0
LINE
  5
558
  8
DEFAULT
 10
118.9036422330441951
 20
20.7820004725671801
 30
0.0
 11
115.9031080295363978
 21
20.7820004725671801
 31
0.0
  0
LINE
  5
559
  8
DEFAULT
 10
115.6604029312238993
 20
20.9583360482550383
 30
0.0
 11
114.7331868701367057
 21
23.8120136548673713
 31
0.0
  0
LINE
  5
55A
  8
DEFAULT
 10
118.5824540030800023
 20
23.3275228450253884
 30
0.0
 11
118.2971370481914022
 21
23.2348177467128494
 31
0.0
  0
LINE
  5
55B
  8
DEFAULT
 10
118.2971370481914022
 20
23.2348177467128494
 30
0.0
 11
118.2044319656975944
 21
23.5201346702875185
 31
0.0
  0
LINE
  5
55C
  8
DEFAULT
 10
118.5824540047388069
 20
23.3275228399201602
 30
0.0
 11
118.4897489222448996
 21
23.6128397634948293
 31
0.0
  0
LINE
  5
55D
  8
DEFAULT
 10
118.2044319656975944
 20
23.5201346702875185
 30
0.0
 11
118.4897489222448996
 21
23.6128397634948293
 31
0.0
  0
LINE
  5
55E
  8
DEFAULT
 10
119.9808582941310959
 20
24.0973306097560602
 30
0.0
 11
120.0735633924439014
 21
23.8120136548675987
 31
0.0
  0
LINE
  5
55F
  8
DEFAULT
 10
118.9036422330440956
 20
20.7820004725671801
 30
0.0
 11
119.1463473313565942
 21
20.9583360482550383
 31
0.0
  0
LINE
  5
560
  8
DEFAULT
 10
115.9031080295363978
 20
20.7820004725671801
 30
0.0
 11
115.6604029312238993
 21
20.9583360482550383
 31
0.0
  0
LINE
  5
561
  8
DEFAULT
 10
117.2533751312900989
 20
25.8610003635769203
 30
0.0
 11
117.553375131290295
 21
25.8610003635769203
 31
0.0
  0
LINE
  5
562
  8
DEFAULT
 10
114.7331868701367057
 20
23.8120136548673713
 30
0.0
 11
114.8258919684491985
 21
24.0973306097559394
 31
0.0
  0
LINE
  5
563
  8
DEFAULT
 10
117.9820859494733014
 20
22.0504138799707903
 30
0.0
 11
117.8057503737855001
 21
22.2931189782832995
 31
0.0
  0
LINE
  5
564
  8
DEFAULT
 10
117.8057503737855001
 20
22.2931189782832995
 30
0.0
 11
118.0484554472049012
 21
22.4694545292500685
 31
0.0
  0
LINE
  5
565
  8
DEFAULT
 10
117.9820859451305068
 20
22.0504138768156395
 30
0.0
 11
118.2247910185499933
 21
22.2267494277825186
 31
0.0
  0
LINE
  5
566
  8
DEFAULT
 10
118.0484554472049012
 20
22.4694545292500685
 30
0.0
 11
118.2247910185499933
 21
22.2267494277825186
 31
0.0
  0
LINE
  5
567
  8
DEFAULT
 10
116.581959214794793
 20
22.2267494556584211
 30
0.0
 11
116.7582947904825943
 21
22.4694545539709409
 31
0.0
  0
LINE
  5
568
  8
DEFAULT
 10
116.7582947904825943
 20
22.4694545539709409
 30
0.0
 11
117.0009998575916939
 21
22.2931189943187213
 31
0.0
  0
LINE
  5
569
  8
DEFAULT
 10
116.5819592104520979
 20
22.2267494588135683
 30
0.0
 11
116.8246642775611974
 21
22.0504138991613594
 31
0.0
  0
LINE
  5
56A
  8
DEFAULT
 10
117.0009998575916939
 20
22.2931189943187213
 30
0.0
 11
116.8246642775611974
 21
22.0504138991613594
 31
0.0
  0
LINE
  5
56B
  8
DEFAULT
 10
116.3170013578129982
 20
23.6128397999138393
 30
0.0
 11
116.6023183127015983
 21
23.5201347016013109
 31
0.0
  0
LINE
  5
56C
  8
DEFAULT
 10
116.6023183127015983
 20
23.5201347016013109
 30
0.0
 11
116.5096132199974051
 21
23.2348177813442511
 31
0.0
  0
LINE
  5
56D
  8
DEFAULT
 10
116.3170013594717034
 20
23.6128398050190711
 30
0.0
 11
116.2242962667675954
 21
23.3275228847618905
 31
0.0
  0
LINE
  5
56E
  8
DEFAULT
 10
116.5096132199974051
 20
23.2348177813442511
 30
0.0
 11
116.2242962667675954
 21
23.3275228847618905
 31
0.0
  0
LINE
  5
56F
  8
DEFAULT
 10
117.5533751312901956
 20
24.2931551684540104
 30
0.0
 11
117.5533751312901956
 21
23.9931551684539386
 31
0.0
  0
LINE
  5
570
  8
DEFAULT
 10
117.5533751312901956
 20
23.9931551684539386
 30
0.0
 11
117.2533751659596959
 21
23.99315517382189
 31
0.0
  0
LINE
  5
571
  8
DEFAULT
 10
117.5533751366581043
 20
24.2931551684540104
 30
0.0
 11
117.2533751713276047
 21
24.293155173821841
 31
0.0
  0
LINE
  5
572
  8
DEFAULT
 10
117.2533751659596959
 20
23.99315517382189
 30
0.0
 11
117.2533751713276047
 21
24.293155173821841
 31
0.0
  0
POLYLINE
  5
573
  8
DEFAULT
 66
     1
 10
0.0
 20
0.0
 30
0.0
 70
     1
  0
VERTEX
  5
9D7
  8
DEFAULT
 10
119.2410621527128995
 20
20.3014289441865117
 30
0.0
  0
VERTEX
  5
9D8
  8
DEFAULT
 10
119.126121645537296
 20
20.4651333729602314
 30
0.0
  0
VERTEX
  5
9D9
  8
DEFAULT
 10
119.3704537885560057
 20
20.6426510590269494
 30
0.0
  0
VERTEX
  5
9DA
  8
DEFAULT
 10
119.486234881286407
 20
20.4795573513840203
 30
0.0
  0
SEQEND
  5
9DB
  8
DEFAULT
  0
POLYLINE
  5
574
  8
DEFAULT
 66
     1
 10
0.0
 20
0.0
 30
0.0
 70
     1
  0
VERTEX
  5
9DC
  8
DEFAULT
 10
120.634882565474399
 20
23.9844142989138085
 30
0.0
  0
VERTEX
  5
9DD
  8
DEFAULT
 10
120.4436718316835027
 20
23.9256868311237589
 30
0.0
  0
VERTEX
  5
9DE
  8
DEFAULT
 10
120.350345264056898
 20
24.2129164896788893
 30
0.0
  0
VERTEX
  5
9DF
  8
DEFAULT
 10
120.5412349227585054
 20
24.2726321250465311
 30
0.0
  0
SEQEND
  5
9E0
  8
DEFAULT
  0
POLYLINE
  5
575
  8
DEFAULT
 66
     1
 10
0.0
 20
0.0
 30
0.0
 70
     1
  0
VERTEX
  5
9E1
  8
DEFAULT
 10
117.5628695390913947
 20
26.4481213496606493
 30
0.0
  0
VERTEX
  5
9E2
  8
DEFAULT
 10
117.5596353137704
 20
26.2481213497195007
 30
0.0
  0
VERTEX
  5
9E3
  8
DEFAULT
 10
117.2576241799049939
 20
26.2481213552168313
 30
0.0
  0
VERTEX
  5
9E4
  8
DEFAULT
 10
117.2598193843530936
 20
26.4481213551767382
 30
0.0
  0
SEQEND
  5
9E5
  8
DEFAULT
  0
POLYLINE
  5
576
  8
DEFAULT
 66
     1
 10
0.0
 20
0.0
 30
0.0
 70
     1
  0
VERTEX
  5
9E6
  8
DEFAULT
 10
114.2704406621428035
 20
24.287790690617669
 30
0.0
  0
VERTEX
  5
9E7
  8
DEFAULT
 10
114.4596525347580069
 20
24.2229113606942406
 30
0.0
  0
VERTEX
  5
9E8
  8
DEFAULT
 10
114.3663259566748991
 20
23.9356817055365312
 30
0.0
  0
VERTEX
  5
9E9
  8
DEFAULT
 10
114.1767930089344958
 20
23.9995728678940701
 30
0.0
  0
SEQEND
  5
9EA
  8
DEFAULT
  0
POLYLINE
  5
577
  8
DEFAULT
 66
     1
 10
0.0
 20
0.0
 30
0.0
 70
     1
  0
VERTEX
  5
9EB
  8
DEFAULT
 10
115.3076207370298931
 20
20.4889258656438109
 30
0.0
  0
VERTEX
  5
9EC
  8
DEFAULT
 10
115.4277943307019996
 20
20.6488282345249594
 30
0.0
  0
VERTEX
  5
9ED
  8
DEFAULT
 10
115.6721264672583942
 20
20.4713105395632589
 30
0.0
  0
VERTEX
  5
9EE
  8
DEFAULT
 10
115.5527934591188028
 20
20.3107974495209795
 30
0.0
  0
SEQEND
  5
9EF
  8
DEFAULT
  0
POLYLINE
  5
578
  8
DEFAULT
 66
     1
 10
0.0
 20
0.0
 30
0.0
  0
VERTEX
  5
9F0
  8
DEFAULT
 10
125.8052618412871055
 20
25.2191666496172502
 30
0.0
  0
VERTEX
  5
9F1
  8
DEFAULT
 10
123.6243181846607939
 20
25.7515273323680312
 30
0.0
  0
VERTEX
  5
9F2
  8
DEFAULT
 10
123.909972897697898
 20
26.9217398283678904
 30
0.0
  0
VERTEX
  5
9F3
  8
DEFAULT
 10
131.1705826643789123
 20
26.9217398283678904
 30
0.0
  0
VERTEX
  5
9F4
  8
DEFAULT
 10
131.1705826643789976
 20
26.2717398283680303
 30
0.0
  0
VERTEX
  5
9F5
  8
DEFAULT
 10
130.7205826643790942
 20
26.2717398283679096
 30
0.0
  0
VERTEX
  5
9F6
  8
DEFAULT
 10
130.720582664379009
 20
26.5717398283679813
 30
0.0
  0
VERTEX
  5
9F7
  8
DEFAULT
 10
130.470582664379009
 20
26.5717398283680915
 30
0.0
  0
VERTEX
  5
9F8
  8
DEFAULT
 10
130.470582664379009
 20
26.2717398283680303
 30
0.0
  0
VERTEX
  5
9F9
  8
DEFAULT
 10
130.1705826643789976
 20
26.2717398283680303
 30
0.0
  0
VERTEX
  5
9FA
  8
DEFAULT
 10
130.1705826643789123
 20
26.3317398283679687
 30
0.0
  0
VERTEX
  5
9FB
  8
DEFAULT
 10
129.970582664379009
 20
26.3317398283678585
 30
0.0
  0
VERTEX
  5
9FC
  8
DEFAULT
 10
129.970582664379009
 20
26.2717398283680303
 30
0.0
  0
VERTEX
  5
9FD
  8
DEFAULT
 10
128.970582664379009
 20
26.2717398283679096
 30
0.0
  0
VERTEX
  5
9FE
  8
DEFAULT
 10
128.9705826643788953
 20
23.5717398283678712
 30
0.0
  0
VERTEX
  5
9FF
  8
DEFAULT
 10
129.9705826643788953
 20
23.5717398283678712
 30
0.0
  0
VERTEX
  5
A00
  8
DEFAULT
 10
129.970582664379009
 20
23.5117398283679186
 30
0.0
  0
VERTEX
  5
A01
  8
DEFAULT
 10
130.1705826643789976
 20
23.5117398283680394
 30
0.0
  0
VERTEX
  5
A02
  8
DEFAULT
 10
130.1705826643789976
 20
23.5717398283679813
 30
0.0
  0
VERTEX
  5
A03
  8
DEFAULT
 10
130.470582664379009
 20
23.5717398283678712
 30
0.0
  0
VERTEX
  5
A04
  8
DEFAULT
 10
130.470582664379009
 20
23.2717398283677994
 30
0.0
  0
VERTEX
  5
A05
  8
DEFAULT
 10
130.720582664379009
 20
23.2717398283679096
 30
0.0
  0
VERTEX
  5
A06
  8
DEFAULT
 10
130.720582664379009
 20
23.5717398283679813
 30
0.0
  0
VERTEX
  5
A07
  8
DEFAULT
 10
131.1705826643789976
 20
23.5717398283678712
 30
0.0
  0
VERTEX
  5
A08
  8
DEFAULT
 10
131.1705826643789976
 20
22.9217398283678904
 30
0.0
  0
VERTEX
  5
A09
  8
DEFAULT
 10
122.9335648939355963
 20
22.9217398283677802
 30
0.0
  0
VERTEX
  5
A0A
  8
DEFAULT
 10
123.2050529692836989
 20
24.0339561541554794
 30
0.0
  0
SEQEND
  5
A0B
  8
DEFAULT
  0
POLYLINE
  5
579
  8
DEFAULT
 66
     1
 10
0.0
 20
0.0
 30
0.0
  0
VERTEX
  5
A0C
  8
DEFAULT
 10
123.4964960500922047
 20
23.9628159223557304
 30
0.0
  0
VERTEX
  5
A0D
  8
DEFAULT
 10
124.1540174465548034
 20
23.8023172602232798
 30
0.0
  0
VERTEX
  5
A0E
  8
DEFAULT
 10
124.2251576641549065
 20
24.0937603054962892
 30
0.0
  0
VERTEX
  5
A0F
  8
DEFAULT
 10
123.567636272762698
 20
24.2542589663911485
 30
0.0
  0
SEQEND
  5
A10
  8
DEFAULT
  0
POLYLINE
  5
57A
  8
DEFAULT
 66
     1
 10
0.0
 20
0.0
 30
0.0
  0
VERTEX
  5
A11
  8
DEFAULT
 10
125.805261842465697
 20
25.2191666455820496
 30
0.0
  0
VERTEX
  5
A12
  8
DEFAULT
 10
125.8046227853888013
 20
25.1678546145680002
 30
0.0
  0
VERTEX
  5
A13
  8
DEFAULT
 10
125.9764828739580054
 20
25.1259041708642599
 30
0.0
  0
VERTEX
  5
A14
  8
DEFAULT
 10
125.9995572284349947
 20
25.1717398283677802
 30
0.0
  0
VERTEX
  5
A15
  8
DEFAULT
 10
127.3705826643790999
 20
25.1717398283678904
 30
0.0
  0
VERTEX
  5
A16
  8
DEFAULT
 10
127.3705826643790004
 20
25.0717398283678712
 30
0.0
  0
VERTEX
  5
A17
  8
DEFAULT
 10
128.1705826643789976
 20
25.0717398283679813
 30
0.0
  0
VERTEX
  5
A18
  8
DEFAULT
 10
128.1705826643789123
 20
24.7717398283679202
 30
0.0
  0
VERTEX
  5
A19
  8
DEFAULT
 10
126.5854057252996938
 20
24.7717398283680303
 30
0.0
  0
VERTEX
  5
A1A
  8
DEFAULT
 10
126.5734698529851983
 20
24.7228416510403086
 30
0.0
  0
VERTEX
  5
A1B
  8
DEFAULT
 10
126.3710547415497985
 20
24.7717398283679202
 30
0.0
  0
VERTEX
  5
A1C
  8
DEFAULT
 10
125.3705826643790004
 20
24.7717398283681405
 30
0.0
  0
VERTEX
  5
A1D
  8
DEFAULT
 10
125.370582664378901
 20
25.0134276188398417
 30
0.0
  0
VERTEX
  5
A1E
  8
DEFAULT
 10
123.5514192580242963
 20
25.4528897429927383
 30
0.0
  0
VERTEX
  5
A1F
  8
DEFAULT
 10
123.2761931868836029
 20
24.325399199428599
 30
0.0
  0
SEQEND
  5
A20
  8
DEFAULT
  0
POLYLINE
  5
57B
  8
DEFAULT
 66
     1
 10
0.0
 20
0.0
 30
0.0
  0
VERTEX
  5
A21
  8
DEFAULT
 10
123.2050529693550942
 20
24.0339561544485605
 30
0.0
  0
VERTEX
  5
A22
  8
DEFAULT
 10
123.2210133007195054
 20
24.0506475041863688
 30
0.0
  0
VERTEX
  5
A23
  8
DEFAULT
 10
123.4900210828104008
 20
23.9849836498707383
 30
0.0
  0
VERTEX
  5
A24
  8
DEFAULT
 10
123.4964960482868008
 20
23.9628159285371112
 30
0.0
  0
SEQEND
  5
A25
  8
DEFAULT
  0
POLYLINE
  5
57C
  8
DEFAULT
 66
     1
 10
0.0
 20
0.0
 30
0.0
  0
VERTEX
  5
A26
  8
DEFAULT
 10
123.2761931922599956
 20
24.3253991984266804
 30
0.0
  0
VERTEX
  5
A27
  8
DEFAULT
 10
123.2826681594741984
 20
24.30323147114348
 30
0.0
  0
VERTEX
  5
A28
  8
DEFAULT
 10
123.5516759415650938
 20
24.2375676168278495
 30
0.0
  0
VERTEX
  5
A29
  8
DEFAULT
 10
123.5676362686458987
 20
24.2542589620859417
 30
0.0
  0
SEQEND
  5
A2A
  8
DEFAULT
  0
POLYLINE
  5
57D
  8
DEFAULT
 66
     1
 10
0.0
 20
0.0
 30
0.0
  0
VERTEX
  5
A2B
  8
DEFAULT
 10
136.5359034874709039
 20
25.2191666496172502
 30
0.0
  0
VERTEX
  5
A2C
  8
DEFAULT
 10
138.7168471440971871
 20
25.7515273323680312
 30
0.0
  0
VERTEX
  5
A2D
  8
DEFAULT
 10
138.4311924310601114
 20
26.9217398283678904
 30
0.0
  0
VERTEX
  5
A2E
  8
DEFAULT
 10
131.1705826643791113
 20
26.9217398283678904
 30
0.0
  0
VERTEX
  5
A2F
  8
DEFAULT
 10
131.1705826643791113
 20
26.2717398283680303
 30
0.0
  0
VERTEX
  5
A30
  8
DEFAULT
 10
131.6205826643789862
 20
26.2717398283679096
 30
0.0
  0
VERTEX
  5
A31
  8
DEFAULT
 10
131.6205826643790999
 20
26.5717398283679813
 30
0.0
  0
VERTEX
  5
A32
  8
DEFAULT
 10
131.8705826643789862
 20
26.5717398283680915
 30
0.0
  0
VERTEX
  5
A33
  8
DEFAULT
 10
131.8705826643789862
 20
26.2717398283680303
 30
0.0
  0
VERTEX
  5
A34
  8
DEFAULT
 10
132.1705826643789976
 20
26.2717398283680303
 30
0.0
  0
VERTEX
  5
A35
  8
DEFAULT
 10
132.1705826643791113
 20
26.3317398283679687
 30
0.0
  0
VERTEX
  5
A36
  8
DEFAULT
 10
132.3705826643789862
 20
26.3317398283678585
 30
0.0
  0
VERTEX
  5
A37
  8
DEFAULT
 10
132.3705826643789862
 20
26.2717398283680303
 30
0.0
  0
VERTEX
  5
A38
  8
DEFAULT
 10
133.3705826643789862
 20
26.2717398283679096
 30
0.0
  0
VERTEX
  5
A39
  8
DEFAULT
 10
133.3705826643789862
 20
23.5717398283678712
 30
0.0
  0
VERTEX
  5
A3A
  8
DEFAULT
 10
132.3705826643789862
 20
23.5717398283678712
 30
0.0
  0
VERTEX
  5
A3B
  8
DEFAULT
 10
132.3705826643789862
 20
23.5117398283679186
 30
0.0
  0
VERTEX
  5
A3C
  8
DEFAULT
 10
132.1705826643791113
 20
23.5117398283680394
 30
0.0
  0
VERTEX
  5
A3D
  8
DEFAULT
 10
132.1705826643791113
 20
23.5717398283679813
 30
0.0
  0
VERTEX
  5
A3E
  8
DEFAULT
 10
131.8705826643789862
 20
23.5717398283678712
 30
0.0
  0
VERTEX
  5
A3F
  8
DEFAULT
 10
131.8705826643789862
 20
23.2717398283677994
 30
0.0
  0
VERTEX
  5
A40
  8
DEFAULT
 10
131.6205826643790999
 20
23.2717398283679096
 30
0.0
  0
VERTEX
  5
A41
  8
DEFAULT
 10
131.6205826643789862
 20
23.5717398283679813
 30
0.0
  0
VERTEX
  5
A42
  8
DEFAULT
 10
131.1705826643789976
 20
23.5717398283678712
 30
0.0
  0
VERTEX
  5
A43
  8
DEFAULT
 10
131.1705826643789976
 20
22.9217398283678904
 30
0.0
  0
VERTEX
  5
A44
  8
DEFAULT
 10
139.4076004348223989
 20
22.9217398283677802
 30
0.0
  0
VERTEX
  5
A45
  8
DEFAULT
 10
139.1361123594743958
 20
24.0339561541554794
 30
0.0
  0
SEQEND
  5
A46
  8
DEFAULT
  0
POLYLINE
  5
57E
  8
DEFAULT
 66
     1
 10
0.0
 20
0.0
 30
0.0
  0
VERTEX
  5
A47
  8
DEFAULT
 10
138.8446692786658048
 20
23.9628159223557304
 30
0.0
  0
VERTEX
  5
A48
  8
DEFAULT
 10
138.1871478822031918
 20
23.8023172602232798
 30
0.0
  0
VERTEX
  5
A49
  8
DEFAULT
 10
138.1160076646031882
 20
24.0937603054962892
 30
0.0
  0
VERTEX
  5
A4A
  8
DEFAULT
 10
138.7735290559953114
 20
24.2542589663911485
 30
0.0
  0
SEQEND
  5
A4B
  8
DEFAULT
  0
POLYLINE
  5
57F
  8
DEFAULT
 66
     1
 10
0.0
 20
0.0
 30
0.0
  0
VERTEX
  5
A4C
  8
DEFAULT
 10
136.5359034862923124
 20
25.2191666455820496
 30
0.0
  0
VERTEX
  5
A4D
  8
DEFAULT
 10
136.5365425433693076
 20
25.1678546145680002
 30
0.0
  0
VERTEX
  5
A4E
  8
DEFAULT
 10
136.3646824548000893
 20
25.1259041708642599
 30
0.0
  0
VERTEX
  5
A4F
  8
DEFAULT
 10
136.3416081003231
 20
25.1717398283677802
 30
0.0
  0
VERTEX
  5
A50
  8
DEFAULT
 10
134.970582664379009
 20
25.1717398283678904
 30
0.0
  0
VERTEX
  5
A51
  8
DEFAULT
 10
134.970582664379009
 20
25.0717398283678712
 30
0.0
  0
VERTEX
  5
A52
  8
DEFAULT
 10
134.1705826643789976
 20
25.0717398283679813
 30
0.0
  0
VERTEX
  5
A53
  8
DEFAULT
 10
134.1705826643791113
 20
24.7717398283679202
 30
0.0
  0
VERTEX
  5
A54
  8
DEFAULT
 10
135.7557596034583867
 20
24.7717398283680303
 30
0.0
  0
VERTEX
  5
A55
  8
DEFAULT
 10
135.767695475772797
 20
24.7228416510403086
 30
0.0
  0
VERTEX
  5
A56
  8
DEFAULT
 10
135.9701105872082962
 20
24.7717398283679202
 30
0.0
  0
VERTEX
  5
A57
  8
DEFAULT
 10
136.9705826643790942
 20
24.7717398283681405
 30
0.0
  0
VERTEX
  5
A58
  8
DEFAULT
 10
136.9705826643790942
 20
25.0134276188398417
 30
0.0
  0
VERTEX
  5
A59
  8
DEFAULT
 10
138.7897460707337984
 20
25.4528897429927383
 30
0.0
  0
VERTEX
  5
A5A
  8
DEFAULT
 10
139.0649721418743923
 20
24.325399199428599
 30
0.0
  0
SEQEND
  5
A5B
  8
DEFAULT
  0
POLYLINE
  5
580
  8
DEFAULT
 66
     1
 10
0.0
 20
0.0
 30
0.0
  0
VERTEX
  5
A5C
  8
DEFAULT
 10
139.1361123594028868
 20
24.0339561544485605
 30
0.0
  0
VERTEX
  5
A5D
  8
DEFAULT
 10
139.1201520280384898
 20
24.0506475041863688
 30
0.0
  0
VERTEX
  5
A5E
  8
DEFAULT
 10
138.8511442459476939
 20
23.9849836498707383
 30
0.0
  0
VERTEX
  5
A5F
  8
DEFAULT
 10
138.8446692804712086
 20
23.9628159285371112
 30
0.0
  0
SEQEND
  5
A60
  8
DEFAULT
  0
POLYLINE
  5
581
  8
DEFAULT
 66
     1
 10
0.0
 20
0.0
 30
0.0
  0
VERTEX
  5
A61
  8
DEFAULT
 10
139.0649721364979996
 20
24.3253991984266804
 30
0.0
  0
VERTEX
  5
A62
  8
DEFAULT
 10
139.058497169283811
 20
24.30323147114348
 30
0.0
  0
VERTEX
  5
A63
  8
DEFAULT
 10
138.7894893871929014
 20
24.2375676168278495
 30
0.0
  0
VERTEX
  5
A64
  8
DEFAULT
 10
138.7735290601121108
 20
24.2542589620859417
 30
0.0
  0
SEQEND
  5
A65
  8
DEFAULT
  0
POLYLINE
  5
582
  8
DEFAULT
 66
     1
 10
0.0
 20
0.0
 30
0.0
  0
VERTEX
  5
A66
  8
DEFAULT
 10
125.8052618412871055
 20
20.6243130071182996
 30
0.0
  0
VERTEX
  5
A67
  8
DEFAULT
 10
123.6243181846607939
 20
20.0919523243675293
 30
0.0
  0
VERTEX
  5
A68
  8
DEFAULT
 10
123.909972897697898
 20
18.9217398283676594
 30
0.0
  0
VERTEX
  5
A69
  8
DEFAULT
 10
131.1705826643789123
 20
18.9217398283676594
 30
0.0
  0
VERTEX
  5
A6A
  8
DEFAULT
 10
131.1705826643789976
 20
19.5717398283675301
 30
0.0
  0
VERTEX
  5
A6B
  8
DEFAULT
 10
130.7205826643790942
 20
19.5717398283676403
 30
0.0
  0
VERTEX
  5
A6C
  8
DEFAULT
 10
130.720582664379009
 20
19.2717398283675685
 30
0.0
  0
VERTEX
  5
A6D
  8
DEFAULT
 10
130.470582664379009
 20
19.2717398283674584
 30
0.0
  0
VERTEX
  5
A6E
  8
DEFAULT
 10
130.470582664379009
 20
19.5717398283675301
 30
0.0
  0
VERTEX
  5
A6F
  8
DEFAULT
 10
130.1705826643789976
 20
19.5717398283675301
 30
0.0
  0
VERTEX
  5
A70
  8
DEFAULT
 10
130.1705826643789123
 20
19.5117398283675811
 30
0.0
  0
VERTEX
  5
A71
  8
DEFAULT
 10
129.970582664379009
 20
19.5117398283676913
 30
0.0
  0
VERTEX
  5
A72
  8
DEFAULT
 10
129.970582664379009
 20
19.5717398283675301
 30
0.0
  0
VERTEX
  5
A73
  8
DEFAULT
 10
128.970582664379009
 20
19.5717398283676403
 30
0.0
  0
VERTEX
  5
A74
  8
DEFAULT
 10
128.9705826643788953
 20
22.2717398283676786
 30
0.0
  0
VERTEX
  5
A75
  8
DEFAULT
 10
129.9705826643788953
 20
22.2717398283676786
 30
0.0
  0
VERTEX
  5
A76
  8
DEFAULT
 10
129.970582664379009
 20
22.3317398283676312
 30
0.0
  0
VERTEX
  5
A77
  8
DEFAULT
 10
130.1705826643789976
 20
22.331739828367521
 30
0.0
  0
VERTEX
  5
A78
  8
DEFAULT
 10
130.1705826643789976
 20
22.2717398283675685
 30
0.0
  0
VERTEX
  5
A79
  8
DEFAULT
 10
130.470582664379009
 20
22.2717398283676786
 30
0.0
  0
VERTEX
  5
A7A
  8
DEFAULT
 10
130.470582664379009
 20
22.5717398283677504
 30
0.0
  0
VERTEX
  5
A7B
  8
DEFAULT
 10
130.720582664379009
 20
22.5717398283676403
 30
0.0
  0
VERTEX
  5
A7C
  8
DEFAULT
 10
130.720582664379009
 20
22.2717398283675685
 30
0.0
  0
VERTEX
  5
A7D
  8
DEFAULT
 10
131.1705826643789976
 20
22.2717398283676786
 30
0.0
  0
VERTEX
  5
A7E
  8
DEFAULT
 10
131.1705826643789976
 20
22.9217398283676594
 30
0.0
  0
VERTEX
  5
A7F
  8
DEFAULT
 10
122.9335648939355963
 20
22.9217398283677802
 30
0.0
  0
VERTEX
  5
A80
  8
DEFAULT
 10
123.2050529692836989
 20
21.8095235025800811
 30
0.0
  0
SEQEND
  5
A81
  8
DEFAULT
  0
POLYLINE
  5
583
  8
DEFAULT
 66
     1
 10
0.0
 20
0.0
 30
0.0
  0
VERTEX
  5
A82
  8
DEFAULT
 10
123.4964960500922047
 20
21.8806637343798194
 30
0.0
  0
VERTEX
  5
A83
  8
DEFAULT
 10
124.1540174465548034
 20
22.0411623965122807
 30
0.0
  0
VERTEX
  5
A84
  8
DEFAULT
 10
124.2251576641549065
 20
21.7497193512392606
 30
0.0
  0
VERTEX
  5
A85
  8
DEFAULT
 10
123.567636272762698
 20
21.5892206903444013
 30
0.0
  0
SEQEND
  5
A86
  8
DEFAULT
  0
POLYLINE
  5
584
  8
DEFAULT
 66
     1
 10
0.0
 20
0.0
 30
0.0
  0
VERTEX
  5
A87
  8
DEFAULT
 10
125.805261842465697
 20
20.6243130111535109
 30
0.0
  0
VERTEX
  5
A88
  8
DEFAULT
 10
125.8046227853888013
 20
20.6756250421675603
 30
0.0
  0
VERTEX
  5
A89
  8
DEFAULT
 10
125.9764828739580054
 20
20.7175754858712899
 30
0.0
  0
VERTEX
  5
A8A
  8
DEFAULT
 10
125.9995572284349947
 20
20.6717398283677802
 30
0.0
  0
VERTEX
  5
A8B
  8
DEFAULT
 10
127.3705826643790999
 20
20.6717398283676701
 30
0.0
  0
VERTEX
  5
A8C
  8
DEFAULT
 10
127.3705826643790004
 20
20.7717398283676893
 30
0.0
  0
VERTEX
  5
A8D
  8
DEFAULT
 10
128.1705826643789976
 20
20.7717398283675685
 30
0.0
  0
VERTEX
  5
A8E
  8
DEFAULT
 10
128.1705826643789123
 20
21.0717398283676403
 30
0.0
  0
VERTEX
  5
A8F
  8
DEFAULT
 10
126.5854057252996938
 20
21.0717398283675301
 30
0.0
  0
VERTEX
  5
A90
  8
DEFAULT
 10
126.5734698529851983
 20
21.1206380056952412
 30
0.0
  0
VERTEX
  5
A91
  8
DEFAULT
 10
126.3710547415497985
 20
21.0717398283676403
 30
0.0
  0
VERTEX
  5
A92
  8
DEFAULT
 10
125.3705826643790004
 20
21.0717398283674093
 30
0.0
  0
VERTEX
  5
A93
  8
DEFAULT
 10
125.370582664378901
 20
20.8300520378957117
 30
0.0
  0
VERTEX
  5
A94
  8
DEFAULT
 10
123.5514192580242963
 20
20.3905899137428186
 30
0.0
  0
VERTEX
  5
A95
  8
DEFAULT
 10
123.2761931868836029
 20
21.5180804573069508
 30
0.0
  0
SEQEND
  5
A96
  8
DEFAULT
  0
POLYLINE
  5
585
  8
DEFAULT
 66
     1
 10
0.0
 20
0.0
 30
0.0
  0
VERTEX
  5
A97
  8
DEFAULT
 10
123.2050529693550942
 20
21.8095235022869893
 30
0.0
  0
VERTEX
  5
A98
  8
DEFAULT
 10
123.2210133007195054
 20
21.792832152549181
 30
0.0
  0
VERTEX
  5
A99
  8
DEFAULT
 10
123.4900210828104008
 20
21.8584960068648115
 30
0.0
  0
VERTEX
  5
A9A
  8
DEFAULT
 10
123.4964960482868008
 20
21.8806637281984386
 30
0.0
  0
SEQEND
  5
A9B
  8
DEFAULT
  0
POLYLINE
  5
586
  8
DEFAULT
 66
     1
 10
0.0
 20
0.0
 30
0.0
  0
VERTEX
  5
A9C
  8
DEFAULT
 10
123.2761931922599956
 20
21.5180804583088694
 30
0.0
  0
VERTEX
  5
A9D
  8
DEFAULT
 10
123.2826681594741984
 20
21.5402481855920804
 30
0.0
  0
VERTEX
  5
A9E
  8
DEFAULT
 10
123.5516759415650938
 20
21.6059120399077109
 30
0.0
  0
VERTEX
  5
A9F
  8
DEFAULT
 10
123.5676362686458987
 20
21.5892206946496117
 30
0.0
  0
SEQEND
  5
AA0
  8
DEFAULT
  0
POLYLINE
  5
587
  8
DEFAULT
 66
     1
 10
0.0
 20
0.0
 30
0.0
  0
VERTEX
  5
AA1
  8
DEFAULT
 10
136.5359034874709039
 20
20.6243130071182996
 30
0.0
  0
VERTEX
  5
AA2
  8
DEFAULT
 10
138.7168471440971871
 20
20.0919523243675293
 30
0.0
  0
VERTEX
  5
AA3
  8
DEFAULT
 10
138.4311924310601114
 20
18.9217398283676594
 30
0.0
  0
VERTEX
  5
AA4
  8
DEFAULT
 10
131.1705826643791113
 20
18.9217398283676594
 30
0.0
  0
VERTEX
  5
AA5
  8
DEFAULT
 10
131.1705826643791113
 20
19.5717398283675301
 30
0.0
  0
VERTEX
  5
AA6
  8
DEFAULT
 10
131.6205826643789862
 20
19.5717398283676403
 30
0.0
  0
VERTEX
  5
AA7
  8
DEFAULT
 10
131.6205826643790999
 20
19.2717398283675685
 30
0.0
  0
VERTEX
  5
AA8
  8
DEFAULT
 10
131.8705826643789862
 20
19.2717398283674584
 30
0.0
  0
VERTEX
  5
AA9
  8
DEFAULT
 10
131.8705826643789862
 20
19.5717398283675301
 30
0.0
  0
VERTEX
  5
AAA
  8
DEFAULT
 10
132.1705826643789976
 20
19.5717398283675301
 30
0.0
  0
VERTEX
  5
AAB
  8
DEFAULT
 10
132.1705826643791113
 20
19.5117398283675811
 30
0.0
  0
VERTEX
  5
AAC
  8
DEFAULT
 10
132.3705826643789862
 20
19.5117398283676913
 30
0.0
  0
VERTEX
  5
AAD
  8
DEFAULT
 10
132.3705826643789862
 20
19.5717398283675301
 30
0.0
  0
VERTEX
  5
AAE
  8
DEFAULT
 10
133.3705826643789862
 20
19.5717398283676403
 30
0.0
  0
VERTEX
  5
AAF
  8
DEFAULT
 10
133.3705826643789862
 20
22.2717398283676786
 30
0.0
  0
VERTEX
  5
AB0
  8
DEFAULT
 10
132.3705826643789862
 20
22.2717398283676786
 30
0.0
  0
VERTEX
  5
AB1
  8
DEFAULT
 10
132.3705826643789862
 20
22.3317398283676312
 30
0.0
  0
VERTEX
  5
AB2
  8
DEFAULT
 10
132.1705826643791113
 20
22.331739828367521
 30
0.0
  0
VERTEX
  5
AB3
  8
DEFAULT
 10
132.1705826643791113
 20
22.2717398283675685
 30
0.0
  0
VERTEX
  5
AB4
  8
DEFAULT
 10
131.8705826643789862
 20
22.2717398283676786
 30
0.0
  0
VERTEX
  5
AB5
  8
DEFAULT
 10
131.8705826643789862
 20
22.5717398283677504
 30
0.0
  0
VERTEX
  5
AB6
  8
DEFAULT
 10
131.6205826643790999
 20
22.5717398283676403
 30
0.0
  0
VERTEX
  5
AB7
  8
DEFAULT
 10
131.6205826643789862
 20
22.2717398283675685
 30
0.0
  0
VERTEX
  5
AB8
  8
DEFAULT
 10
131.1705826643789976
 20
22.2717398283676786
 30
0.0
  0
VERTEX
  5
AB9
  8
DEFAULT
 10
131.1705826643789976
 20
22.9217398283676594
 30
0.0
  0
VERTEX
  5
ABA
  8
DEFAULT
 10
139.4076004348223989
 20
22.9217398283677802
 30
0.0
  0
VERTEX
  5
ABB
  8
DEFAULT
 10
139.1361123594743958
 20
21.8095235025800811
 30
0.0
  0
SEQEND
  5
ABC
  8
DEFAULT
  0
POLYLINE
  5
588
  8
DEFAULT
 66
     1
 10
0.0
 20
0.0
 30
0.0
  0
VERTEX
  5
ABD
  8
DEFAULT
 10
138.8446692786658048
 20
21.8806637343798194
 30
0.0
  0
VERTEX
  5
ABE
  8
DEFAULT
 10
138.1871478822031918
 20
22.0411623965122807
 30
0.0
  0
VERTEX
  5
ABF
  8
DEFAULT
 10
138.1160076646031882
 20
21.7497193512392606
 30
0.0
  0
VERTEX
  5
AC0
  8
DEFAULT
 10
138.7735290559953114
 20
21.5892206903444013
 30
0.0
  0
SEQEND
  5
AC1
  8
DEFAULT
  0
POLYLINE
  5
589
  8
DEFAULT
 66
     1
 10
0.0
 20
0.0
 30
0.0
  0
VERTEX
  5
AC2
  8
DEFAULT
 10
136.5359034862923124
 20
20.6243130111535109
 30
0.0
  0
VERTEX
  5
AC3
  8
DEFAULT
 10
136.5365425433693076
 20
20.6756250421675603
 30
0.0
  0
VERTEX
  5
AC4
  8
DEFAULT
 10
136.3646824548000893
 20
20.7175754858712899
 30
0.0
  0
VERTEX
  5
AC5
  8
DEFAULT
 10
136.3416081003231
 20
20.6717398283677802
 30
0.0
  0
VERTEX
  5
AC6
  8
DEFAULT
 10
134.970582664379009
 20
20.6717398283676701
 30
0.0
  0
VERTEX
  5
AC7
  8
DEFAULT
 10
134.970582664379009
 20
20.7717398283676893
 30
0.0
  0
VERTEX
  5
AC8
  8
DEFAULT
 10
134.1705826643789976
 20
20.7717398283675685
 30
0.0
  0
VERTEX
  5
AC9
  8
DEFAULT
 10
134.1705826643791113
 20
21.0717398283676403
 30
0.0
  0
VERTEX
  5
ACA
  8
DEFAULT
 10
135.7557596034583867
 20
21.0717398283675301
 30
0.0
  0
VERTEX
  5
ACB
  8
DEFAULT
 10
135.767695475772797
 20
21.1206380056952412
 30
0.0
  0
VERTEX
  5
ACC
  8
DEFAULT
 10
135.9701105872082962
 20
21.0717398283676403
 30
0.0
  0
VERTEX
  5
ACD
  8
DEFAULT
 10
136.9705826643790942
 20
21.0717398283674093
 30
0.0
  0
VERTEX
  5
ACE
  8
DEFAULT
 10
136.9705826643790942
 20
20.8300520378957117
 30
0.0
  0
VERTEX
  5
ACF
  8
DEFAULT
 10
138.7897460707337984
 20
20.3905899137428186
 30
0.0
  0
VERTEX
  5
AD0
  8
DEFAULT
 10
139.0649721418743923
 20
21.5180804573069508
 30
0.0
  0
SEQEND
  5
AD1
  8
DEFAULT
  0
POLYLINE
  5
58A
  8
DEFAULT
 66
     1
 10
0.0
 20
0.0
 30
0.0
  0
VERTEX
  5
AD2
  8
DEFAULT
 10
139.1361123594028868
 20
21.8095235022869893
 30
0.0
  0
VERTEX
  5
AD3
  8
DEFAULT
 10
139.1201520280384898
 20
21.792832152549181
 30
0.0
  0
VERTEX
  5
AD4
  8
DEFAULT
 10
138.8511442459476939
 20
21.8584960068648115
 30
0.0
  0
VERTEX
  5
AD5
  8
DEFAULT
 10
138.8446692804712086
 20
21.8806637281984386
 30
0.0
  0
SEQEND
  5
AD6
  8
DEFAULT
  0
POLYLINE
  5
58B
  8
DEFAULT
 66
     1
 10
0.0
 20
0.0
 30
0.0
  0
VERTEX
  5
AD7
  8
DEFAULT
 10
139.0649721364979996
 20
21.5180804583088694
 30
0.0
  0
VERTEX
  5
AD8
  8
DEFAULT
 10
139.058497169283811
 20
21.5402481855920804
 30
0.0
  0
VERTEX
  5
AD9
  8
DEFAULT
 10
138.7894893871929014
 20
21.6059120399077109
 30
0.0
  0
VERTEX
  5
ADA
  8
DEFAULT
 10
138.7735290601121108
 20
21.5892206946496117
 30
0.0
  0
SEQEND
  5
ADB
  8
DEFAULT
  0
POLYLINE
  5
58C
  8
DEFAULT
 66
     1
 10
0.0
 20
0.0
 30
0.0
  0
VERTEX
  5
ADC
  8
DEFAULT
 10
136.5359034874709039
 20
17.2191666496170193
 30
0.0
  0
VERTEX
  5
ADD
  8
DEFAULT
 10
138.7168471440971871
 20
17.7515273323678002
 30
0.0
  0
VERTEX
  5
ADE
  8
DEFAULT
 10
138.4311924310601114
 20
18.9217398283676594
 30
0.0
  0
VERTEX
  5
ADF
  8
DEFAULT
 10
131.1705826643791113
 20
18.9217398283676594
 30
0.0
  0
VERTEX
  5
AE0
  8
DEFAULT
 10
131.1705826643791113
 20
18.2717398283677994
 30
0.0
  0
VERTEX
  5
AE1
  8
DEFAULT
 10
131.6205826643789862
 20
18.2717398283676786
 30
0.0
  0
VERTEX
  5
AE2
  8
DEFAULT
 10
131.6205826643790999
 20
18.5717398283677504
 30
0.0
  0
VERTEX
  5
AE3
  8
DEFAULT
 10
131.8705826643789862
 20
18.5717398283678712
 30
0.0
  0
VERTEX
  5
AE4
  8
DEFAULT
 10
131.8705826643789862
 20
18.2717398283677994
 30
0.0
  0
VERTEX
  5
AE5
  8
DEFAULT
 10
132.1705826643789976
 20
18.2717398283677994
 30
0.0
  0
VERTEX
  5
AE6
  8
DEFAULT
 10
132.1705826643791113
 20
18.3317398283677413
 30
0.0
  0
VERTEX
  5
AE7
  8
DEFAULT
 10
132.3705826643789862
 20
18.3317398283676312
 30
0.0
  0
VERTEX
  5
AE8
  8
DEFAULT
 10
132.3705826643789862
 20
18.2717398283677994
 30
0.0
  0
VERTEX
  5
AE9
  8
DEFAULT
 10
133.3705826643789862
 20
18.2717398283676786
 30
0.0
  0
VERTEX
  5
AEA
  8
DEFAULT
 10
133.3705826643789862
 20
15.5717398283676403
 30
0.0
  0
VERTEX
  5
AEB
  8
DEFAULT
 10
132.3705826643789862
 20
15.5717398283676403
 30
0.0
  0
VERTEX
  5
AEC
  8
DEFAULT
 10
132.3705826643789862
 20
15.5117398283676895
 30
0.0
  0
VERTEX
  5
AED
  8
DEFAULT
 10
132.1705826643791113
 20
15.5117398283678103
 30
0.0
  0
VERTEX
  5
AEE
  8
DEFAULT
 10
132.1705826643791113
 20
15.5717398283677504
 30
0.0
  0
VERTEX
  5
AEF
  8
DEFAULT
 10
131.8705826643789862
 20
15.5717398283676403
 30
0.0
  0
VERTEX
  5
AF0
  8
DEFAULT
 10
131.8705826643789862
 20
15.2717398283675703
 30
0.0
  0
VERTEX
  5
AF1
  8
DEFAULT
 10
131.6205826643790999
 20
15.2717398283676804
 30
0.0
  0
VERTEX
  5
AF2
  8
DEFAULT
 10
131.6205826643789862
 20
15.5717398283677504
 30
0.0
  0
VERTEX
  5
AF3
  8
DEFAULT
 10
131.1705826643789976
 20
15.5717398283676403
 30
0.0
  0
VERTEX
  5
AF4
  8
DEFAULT
 10
131.1705826643789976
 20
14.9217398283676594
 30
0.0
  0
VERTEX
  5
AF5
  8
DEFAULT
 10
139.4076004348223989
 20
14.9217398283675493
 30
0.0
  0
VERTEX
  5
AF6
  8
DEFAULT
 10
139.1361123594743958
 20
16.0339561541552484
 30
0.0
  0
SEQEND
  5
AF7
  8
DEFAULT
  0
POLYLINE
  5
58D
  8
DEFAULT
 66
     1
 10
0.0
 20
0.0
 30
0.0
  0
VERTEX
  5
AF8
  8
DEFAULT
 10
138.8446692786658048
 20
15.9628159223554995
 30
0.0
  0
VERTEX
  5
AF9
  8
DEFAULT
 10
138.1871478822031918
 20
15.8023172602230506
 30
0.0
  0
VERTEX
  5
AFA
  8
DEFAULT
 10
138.1160076646031882
 20
16.0937603054960583
 30
0.0
  0
VERTEX
  5
AFB
  8
DEFAULT
 10
138.7735290559953114
 20
16.2542589663909212
 30
0.0
  0
SEQEND
  5
AFC
  8
DEFAULT
  0
POLYLINE
  5
58E
  8
DEFAULT
 66
     1
 10
0.0
 20
0.0
 30
0.0
  0
VERTEX
  5
AFD
  8
DEFAULT
 10
136.5359034862923124
 20
17.2191666455818186
 30
0.0
  0
VERTEX
  5
AFE
  8
DEFAULT
 10
136.5365425433693076
 20
17.1678546145677693
 30
0.0
  0
VERTEX
  5
AFF
  8
DEFAULT
 10
136.3646824548000893
 20
17.1259041708640289
 30
0.0
  0
VERTEX
  5
B00
  8
DEFAULT
 10
136.3416081003231
 20
17.1717398283675493
 30
0.0
  0
VERTEX
  5
B01
  8
DEFAULT
 10
134.970582664379009
 20
17.1717398283676594
 30
0.0
  0
VERTEX
  5
B02
  8
DEFAULT
 10
134.970582664379009
 20
17.0717398283676403
 30
0.0
  0
VERTEX
  5
B03
  8
DEFAULT
 10
134.1705826643789976
 20
17.0717398283677504
 30
0.0
  0
VERTEX
  5
B04
  8
DEFAULT
 10
134.1705826643791113
 20
16.7717398283676786
 30
0.0
  0
VERTEX
  5
B05
  8
DEFAULT
 10
135.7557596034583867
 20
16.7717398283677994
 30
0.0
  0
VERTEX
  5
B06
  8
DEFAULT
 10
135.767695475772797
 20
16.7228416510400812
 30
0.0
  0
VERTEX
  5
B07
  8
DEFAULT
 10
135.9701105872082962
 20
16.7717398283676786
 30
0.0
  0
VERTEX
  5
B08
  8
DEFAULT
 10
136.9705826643790942
 20
16.7717398283679096
 30
0.0
  0
VERTEX
  5
B09
  8
DEFAULT
 10
136.9705826643790942
 20
17.0134276188396107
 30
0.0
  0
VERTEX
  5
B0A
  8
DEFAULT
 10
138.7897460707337984
 20
17.4528897429925109
 30
0.0
  0
VERTEX
  5
B0B
  8
DEFAULT
 10
139.0649721418743923
 20
16.3253991994283716
 30
0.0
  0
SEQEND
  5
B0C
  8
DEFAULT
  0
POLYLINE
  5
58F
  8
DEFAULT
 66
     1
 10
0.0
 20
0.0
 30
0.0
  0
VERTEX
  5
B0D
  8
DEFAULT
 10
139.1361123594028868
 20
16.0339561544483296
 30
0.0
  0
VERTEX
  5
B0E
  8
DEFAULT
 10
139.1201520280384898
 20
16.0506475041861414
 30
0.0
  0
VERTEX
  5
B0F
  8
DEFAULT
 10
138.8511442459476939
 20
15.9849836498705091
 30
0.0
  0
VERTEX
  5
B10
  8
DEFAULT
 10
138.8446692804712086
 20
15.9628159285368803
 30
0.0
  0
SEQEND
  5
B11
  8
DEFAULT
  0
POLYLINE
  5
590
  8
DEFAULT
 66
     1
 10
0.0
 20
0.0
 30
0.0
  0
VERTEX
  5
B12
  8
DEFAULT
 10
139.0649721364979996
 20
16.3253991984264495
 30
0.0
  0
VERTEX
  5
B13
  8
DEFAULT
 10
139.058497169283811
 20
16.3032314711432491
 30
0.0
  0
VERTEX
  5
B14
  8
DEFAULT
 10
138.7894893871929014
 20
16.2375676168276186
 30
0.0
  0
VERTEX
  5
B15
  8
DEFAULT
 10
138.7735290601121108
 20
16.2542589620857107
 30
0.0
  0
SEQEND
  5
B16
  8
DEFAULT
  0
LINE
  5
5A1
  8
DEFAULT
 10
80.7428978545568867
 20
6.5240765391366153
 30
0.0
 11
80.7428978545568867
 21
10.3240765391365699
 31
0.0
  0
LINE
  5
5A2
  8
DEFAULT
 10
78.6428978545568498
 20
10.3240765391365699
 30
0.0
 11
78.6428978545568498
 21
6.5240765391366153
 31
0.0
  0
LINE
  5
5A3
  8
DEFAULT
 10
82.8428978545568953
 20
6.5240765391366153
 30
0.0
 11
82.8428978545568953
 21
10.3240765391365699
 31
0.0
  0
LINE
  5
5A4
  8
DEFAULT
 10
84.9428978545568611
 20
6.5240765391366153
 30
0.0
 11
84.9428978545568611
 21
10.3240765391365699
 31
0.0
  0
LINE
  5
5A5
  8
DEFAULT
 10
87.0428978545568839
 20
10.3240765391365699
 30
0.0
 11
87.0428978545568839
 21
6.5240765391366153
 31
0.0
  0
LINE
  5
5A6
  8
DEFAULT
 10
89.1428978545569066
 20
10.3240765391365699
 30
0.0
 11
89.1428978545569066
 21
6.5240765391366153
 31
0.0
  0
POLYLINE
  5
5AA
  8
DEFAULT
 66
     1
 10
0.0
 20
0.0
 30
0.0
  0
VERTEX
  5
B80
  8
DEFAULT
 10
89.1428978545569066
 20
6.5240765391366153
 30
0.0
  0
VERTEX
  5
B81
  8
DEFAULT
 10
88.4428978545568611
 20
6.5240765391366153
 30
0.0
  0
VERTEX
  5
B82
  8
DEFAULT
 10
88.2228978545568907
 20
8.6240765391365244
 30
0.0
  0
VERTEX
  5
B83
  8
DEFAULT
 10
88.2228978545568907
 20
8.7240765391365471
 30
0.0
  0
VERTEX
  5
B84
  8
DEFAULT
 10
88.2428978545569294
 20
8.7240765391365471
 30
0.0
  0
VERTEX
  5
B85
  8
DEFAULT
 10
88.2428978545569294
 20
9.5240765391366153
 30
0.0
  0
VERTEX
  5
B86
  8
DEFAULT
 10
87.9428978545568754
 20
9.5240765391366153
 30
0.0
  0
VERTEX
  5
B87
  8
DEFAULT
 10
87.9428978545568754
 20
8.7240765391365471
 30
0.0
  0
VERTEX
  5
B88
  8
DEFAULT
 10
87.9628978545568856
 20
8.7240765391365471
 30
0.0
  0
VERTEX
  5
B89
  8
DEFAULT
 10
87.9628978545568856
 20
8.6240765391365244
 30
0.0
  0
VERTEX
  5
B8A
  8
DEFAULT
 10
87.7428978545569151
 20
6.5240765391366153
 30
0.0
  0
VERTEX
  5
B8B
  8
DEFAULT
 10
86.3428978545568953
 20
6.5240765391366153
 30
0.0
  0
VERTEX
  5
B8C
  8
DEFAULT
 10
86.1228978545569248
 20
8.6240765391365244
 30
0.0
  0
VERTEX
  5
B8D
  8
DEFAULT
 10
86.1228978545569248
 20
8.7240765391365471
 30
0.0
  0
VERTEX
  5
B8E
  8
DEFAULT
 10
86.1428978545569066
 20
8.7240765391365471
 30
0.0
  0
VERTEX
  5
B8F
  8
DEFAULT
 10
86.1428978545569066
 20
9.5240765391366153
 30
0.0
  0
VERTEX
  5
B90
  8
DEFAULT
 10
85.8428978545568953
 20
9.5240765391366153
 30
0.0
  0
VERTEX
  5
B91
  8
DEFAULT
 10
85.8428978545568953
 20
8.7240765391365471
 30
0.0
  0
VERTEX
  5
B92
  8
DEFAULT
 10
85.8628978545568771
 20
8.7240765391365471
 30
0.0
  0
VERTEX
  5
B93
  8
DEFAULT
 10
85.8628978545568771
 20
8.6240765391365244
 30
0.0
  0
VERTEX
  5
B94
  8
DEFAULT
 10
85.6428978545569066
 20
6.5240765391366153
 30
0.0
  0
VERTEX
  5
B95
  8
DEFAULT
 10
84.2428978545568725
 20
6.5240765391366153
 30
0.0
  0
VERTEX
  5
B96
  8
DEFAULT
 10
84.0228978545569163
 20
8.6240765391365244
 30
0.0
  0
VERTEX
  5
B97
  8
DEFAULT
 10
84.0228978545569163
 20
8.7240765391365471
 30
0.0
  0
VERTEX
  5
B98
  8
DEFAULT
 10
84.0428978545568839
 20
8.7240765391365471
 30
0.0
  0
VERTEX
  5
B99
  8
DEFAULT
 10
84.0428978545568839
 20
9.5240765391366153
 30
0.0
  0
VERTEX
  5
B9A
  8
DEFAULT
 10
83.7428978545568725
 20
9.5240765391366153
 30
0.0
  0
VERTEX
  5
B9B
  8
DEFAULT
 10
83.7428978545568725
 20
8.7240765391365471
 30
0.0
  0
VERTEX
  5
B9C
  8
DEFAULT
 10
83.7628978545568543
 20
8.7240765391365471
 30
0.0
  0
VERTEX
  5
B9D
  8
DEFAULT
 10
83.7628978545568543
 20
8.6240765391365244
 30
0.0
  0
VERTEX
  5
B9E
  8
DEFAULT
 10
83.5428978545568839
 20
6.5240765391366153
 30
0.0
  0
VERTEX
  5
B9F
  8
DEFAULT
 10
82.1428978545568498
 20
6.5240765391366153
 30
0.0
  0
VERTEX
  5
BA0
  8
DEFAULT
 10
81.9228978545568793
 20
8.6240765391365244
 30
0.0
  0
VERTEX
  5
BA1
  8
DEFAULT
 10
81.9228978545568793
 20
8.7240765391365471
 30
0.0
  0
VERTEX
  5
BA2
  8
DEFAULT
 10
81.9428978545568469
 20
8.7240765391365471
 30
0.0
  0
VERTEX
  5
BA3
  8
DEFAULT
 10
81.9428978545568469
 20
9.5240765391366153
 30
0.0
  0
VERTEX
  5
BA4
  8
DEFAULT
 10
81.6428978545568356
 20
9.5240765391366153
 30
0.0
  0
VERTEX
  5
BA5
  8
DEFAULT
 10
81.6428978545568356
 20
8.7240765391365471
 30
0.0
  0
VERTEX
  5
BA6
  8
DEFAULT
 10
81.6628978545568742
 20
8.7240765391365471
 30
0.0
  0
VERTEX
  5
BA7
  8
DEFAULT
 10
81.6628978545568742
 20
8.6240765391365244
 30
0.0
  0
VERTEX
  5
BA8
  8
DEFAULT
 10
81.4428978545568611
 20
6.5240765391366153
 30
0.0
  0
VERTEX
  5
BA9
  8
DEFAULT
 10
80.0428978545568839
 20
6.5240765391366153
 30
0.0
  0
VERTEX
  5
BAA
  8
DEFAULT
 10
79.8228978545568566
 20
8.6240765391365244
 30
0.0
  0
VERTEX
  5
BAB
  8
DEFAULT
 10
79.8228978545568566
 20
8.7240765391365471
 30
0.0
  0
VERTEX
  5
BAC
  8
DEFAULT
 10
79.8428978545568384
 20
8.7240765391365471
 30
0.0
  0
VERTEX
  5
BAD
  8
DEFAULT
 10
79.8428978545568384
 20
9.5240765391366153
 30
0.0
  0
VERTEX
  5
BAE
  8
DEFAULT
 10
79.5428978545568839
 20
9.5240765391366153
 30
0.0
  0
VERTEX
  5
BAF
  8
DEFAULT
 10
79.5428978545568839
 20
8.7240765391365471
 30
0.0
  0
VERTEX
  5
BB0
  8
DEFAULT
 10
79.5628978545568657
 20
8.7240765391365471
 30
0.0
  0
VERTEX
  5
BB1
  8
DEFAULT
 10
79.5628978545568657
 20
8.6240765391365244
 30
0.0
  0
VERTEX
  5
BB2
  8
DEFAULT
 10
79.3428978545568384
 20
6.5240765391366153
 30
0.0
  0
VERTEX
  5
BB3
  8
DEFAULT
 10
77.9428978545568611
 20
6.5240765391366153
 30
0.0
  0
VERTEX
  5
BB4
  8
DEFAULT
 10
77.7228978545568339
 20
8.6240765391365244
 30
0.0
  0
VERTEX
  5
BB5
  8
DEFAULT
 10
77.7228978545568339
 20
8.7240765391365471
 30
0.0
  0
VERTEX
  5
BB6
  8
DEFAULT
 10
77.7428978545568725
 20
8.7240765391365471
 30
0.0
  0
VERTEX
  5
BB7
  8
DEFAULT
 10
77.7428978545568725
 20
9.5240765391366153
 30
0.0
  0
VERTEX
  5
BB8
  8
DEFAULT
 10
77.4428978545568611
 20
9.5240765391366153
 30
0.0
  0
VERTEX
  5
BB9
  8
DEFAULT
 10
77.4428978545568611
 20
8.7240765391365471
 30
0.0
  0
VERTEX
  5
BBA
  8
DEFAULT
 10
77.462897854556843
 20
8.7240765391365471
 30
0.0
  0
VERTEX
  5
BBB
  8
DEFAULT
 10
77.462897854556843
 20
8.6240765391365244
 30
0.0
  0
VERTEX
  5
BBC
  8
DEFAULT
 10
77.2428978545568725
 20
6.5240765391366153
 30
0.0
  0
VERTEX
  5
BBD
  8
DEFAULT
 10
76.5428978545568839
 20
6.5240765391366153
 30
0.0
  0
VERTEX
  5
BBE
  8
DEFAULT
 10
76.5428978545568839
 20
10.3240765391365699
 30
0.0
  0
VERTEX
  5
BBF
  8
DEFAULT
 10
89.1428978545569066
 20
10.3240765391365699
 30
0.0
  0
SEQEND
  5
BC0
  8
DEFAULT
  0
LINE
  5
5BB
  8
DEFAULT
 10
122.1643879056054942
 20
9.7484972203019709
 30
0.0
 11
122.1643879056054942
 21
13.5484972203019201
 31
0.0
  0
LINE
  5
5BC
  8
DEFAULT
 10
120.0643879056054999
 20
13.5484972203019201
 30
0.0
 11
120.0643879056054999
 21
9.7484972203019709
 31
0.0
  0
LINE
  5
5BD
  8
DEFAULT
 10
124.2643879056056022
 20
9.7484972203019709
 30
0.0
 11
124.2643879056056022
 21
13.5484972203019201
 31
0.0
  0
LINE
  5
5BE
  8
DEFAULT
 10
126.3643879056054971
 20
9.7484972203019709
 30
0.0
 11
126.3643879056054971
 21
13.5484972203019201
 31
0.0
  0
LINE
  5
5BF
  8
DEFAULT
 10
128.4643879056054914
 20
13.5484972203019201
 30
0.0
 11
128.4643879056054914
 21
9.7484972203019709
 31
0.0
  0
POLYLINE
  5
5C4
  8
DEFAULT
 66
     1
 10
0.0
 20
0.0
 30
0.0
  0
VERTEX
  5
C2A
  8
DEFAULT
 10
128.4643879056054914
 20
9.7484972203019709
 30
0.0
  0
VERTEX
  5
C2B
  8
DEFAULT
 10
127.7643879056056022
 20
9.7484972203019709
 30
0.0
  0
VERTEX
  5
C2C
  8
DEFAULT
 10
127.5443879056056034
 20
11.8484972203018799
 30
0.0
  0
VERTEX
  5
C2D
  8
DEFAULT
 10
127.5443879056056034
 20
11.9484972203019009
 30
0.0
  0
VERTEX
  5
C2E
  8
DEFAULT
 10
127.5643879056055994
 20
11.9484972203019009
 30
0.0
  0
VERTEX
  5
C2F
  8
DEFAULT
 10
127.5643879056055994
 20
12.7484972203019709
 30
0.0
  0
VERTEX
  5
C30
  8
DEFAULT
 10
127.2643879056056022
 20
12.7484972203019709
 30
0.0
  0
VERTEX
  5
C31
  8
DEFAULT
 10
127.2643879056056022
 20
11.9484972203019009
 30
0.0
  0
VERTEX
  5
C32
  8
DEFAULT
 10
127.2843879056054988
 20
11.9484972203019009
 30
0.0
  0
VERTEX
  5
C33
  8
DEFAULT
 10
127.2843879056054988
 20
11.8484972203018799
 30
0.0
  0
VERTEX
  5
C34
  8
DEFAULT
 10
127.0643879056055994
 20
9.7484972203019709
 30
0.0
  0
VERTEX
  5
C35
  8
DEFAULT
 10
125.6643879056054942
 20
9.7484972203019709
 30
0.0
  0
VERTEX
  5
C36
  8
DEFAULT
 10
125.4443879056055948
 20
11.8484972203018799
 30
0.0
  0
VERTEX
  5
C37
  8
DEFAULT
 10
125.4443879056055948
 20
11.9484972203019009
 30
0.0
  0
VERTEX
  5
C38
  8
DEFAULT
 10
125.4643879056056051
 20
11.9484972203019009
 30
0.0
  0
VERTEX
  5
C39
  8
DEFAULT
 10
125.4643879056056051
 20
12.7484972203019709
 30
0.0
  0
VERTEX
  5
C3A
  8
DEFAULT
 10
125.1643879056055937
 20
12.7484972203019709
 30
0.0
  0
VERTEX
  5
C3B
  8
DEFAULT
 10
125.1643879056055937
 20
11.9484972203019009
 30
0.0
  0
VERTEX
  5
C3C
  8
DEFAULT
 10
125.1843879056055044
 20
11.9484972203019009
 30
0.0
  0
VERTEX
  5
C3D
  8
DEFAULT
 10
125.1843879056055044
 20
11.8484972203018799
 30
0.0
  0
VERTEX
  5
C3E
  8
DEFAULT
 10
124.9643879056056051
 20
9.7484972203019709
 30
0.0
  0
VERTEX
  5
C3F
  8
DEFAULT
 10
123.5643879056054999
 20
9.7484972203019709
 30
0.0
  0
VERTEX
  5
C40
  8
DEFAULT
 10
123.3443879056056005
 20
11.8484972203018799
 30
0.0
  0
VERTEX
  5
C41
  8
DEFAULT
 10
123.3443879056056005
 20
11.9484972203019009
 30
0.0
  0
VERTEX
  5
C42
  8
DEFAULT
 10
123.3643879056054971
 20
11.9484972203019009
 30
0.0
  0
VERTEX
  5
C43
  8
DEFAULT
 10
123.3643879056054971
 20
12.7484972203019709
 30
0.0
  0
VERTEX
  5
C44
  8
DEFAULT
 10
123.0643879056054999
 20
12.7484972203019709
 30
0.0
  0
VERTEX
  5
C45
  8
DEFAULT
 10
123.0643879056054999
 20
11.9484972203019009
 30
0.0
  0
VERTEX
  5
C46
  8
DEFAULT
 10
123.0843879056055954
 20
11.9484972203019009
 30
0.0
  0
VERTEX
  5
C47
  8
DEFAULT
 10
123.0843879056055954
 20
11.8484972203018799
 30
0.0
  0
VERTEX
  5
C48
  8
DEFAULT
 10
122.8643879056054971
 20
9.7484972203019709
 30
0.0
  0
VERTEX
  5
C49
  8
DEFAULT
 10
121.4643879056056051
 20
9.7484972203019709
 30
0.0
  0
VERTEX
  5
C4A
  8
DEFAULT
 10
121.2443879056055067
 20
11.8484972203018799
 30
0.0
  0
VERTEX
  5
C4B
  8
DEFAULT
 10
121.2443879056055067
 20
11.9484972203019009
 30
0.0
  0
VERTEX
  5
C4C
  8
DEFAULT
 10
121.2643879056055027
 20
11.9484972203019009
 30
0.0
  0
VERTEX
  5
C4D
  8
DEFAULT
 10
121.2643879056055027
 20
12.7484972203019709
 30
0.0
  0
VERTEX
  5
C4E
  8
DEFAULT
 10
120.9643879056055056
 20
12.7484972203019709
 30
0.0
  0
VERTEX
  5
C4F
  8
DEFAULT
 10
120.9643879056055056
 20
11.9484972203019009
 30
0.0
  0
VERTEX
  5
C50
  8
DEFAULT
 10
120.9843879056055016
 20
11.9484972203019009
 30
0.0
  0
VERTEX
  5
C51
  8
DEFAULT
 10
120.9843879056055016
 20
11.8484972203018799
 30
0.0
  0
VERTEX
  5
C52
  8
DEFAULT
 10
120.7643879056055027
 20
9.7484972203019709
 30
0.0
  0
VERTEX
  5
C53
  8
DEFAULT
 10
119.3643879056054971
 20
9.7484972203019709
 30
0.0
  0
VERTEX
  5
C54
  8
DEFAULT
 10
119.1443879056054982
 20
11.8484972203018799
 30
0.0
  0
VERTEX
  5
C55
  8
DEFAULT
 10
119.1443879056054982
 20
11.9484972203019009
 30
0.0
  0
VERTEX
  5
C56
  8
DEFAULT
 10
119.1643879056054942
 20
11.9484972203019009
 30
0.0
  0
VERTEX
  5
C57
  8
DEFAULT
 10
119.1643879056054942
 20
12.7484972203019709
 30
0.0
  0
VERTEX
  5
C58
  8
DEFAULT
 10
118.8643879056054971
 20
12.7484972203019709
 30
0.0
  0
VERTEX
  5
C59
  8
DEFAULT
 10
118.8643879056054971
 20
11.9484972203019009
 30
0.0
  0
VERTEX
  5
C5A
  8
DEFAULT
 10
118.8843879056054931
 20
11.9484972203019009
 30
0.0
  0
VERTEX
  5
C5B
  8
DEFAULT
 10
118.8843879056054931
 20
11.8484972203018799
 30
0.0
  0
VERTEX
  5
C5C
  8
DEFAULT
 10
118.6643879056054942
 20
9.7484972203019709
 30
0.0
  0
VERTEX
  5
C5D
  8
DEFAULT
 10
117.9643879056055056
 20
9.7484972203019709
 30
0.0
  0
VERTEX
  5
C5E
  8
DEFAULT
 10
117.9643879056055056
 20
13.5484972203019201
 30
0.0
  0
VERTEX
  5
C5F
  8
DEFAULT
 10
128.4643879056054914
 20
13.5484972203019201
 30
0.0
  0
SEQEND
  5
C60
  8
DEFAULT
  0
POLYLINE
  5
5E1
  8
DEFAULT
 66
     1
 10
0.0
 20
0.0
 30
0.0
 70
     1
  0
VERTEX
  5
CF4
  8
DEFAULT
 10
-4.3282037837725511
 20
21.2552408648903111
 30
0.0
  0
VERTEX
  5
CF5
  8
DEFAULT
 10
-4.3282037837725511
 20
20.9552408648901292
 30
0.0
  0
VERTEX
  5
CF6
  8
DEFAULT
 10
-4.2682037837726048
 20
20.9552408648901292
 30
0.0
  0
VERTEX
  5
CF7
  8
DEFAULT
 10
-4.2682037837726048
 20
20.7552408648903111
 30
0.0
  0
VERTEX
  5
CF8
  8
DEFAULT
 10
-4.3282037837725511
 20
20.7552408648903111
 30
0.0
  0
VERTEX
  5
CF9
  8
DEFAULT
 10
-4.3282037837725511
 20
19.7552408648903111
 30
0.0
  0
VERTEX
  5
CFA
  8
DEFAULT
 10
-7.0282037837725957
 20
19.7552408648903111
 30
0.0
  0
VERTEX
  5
CFB
  8
DEFAULT
 10
-7.0282037837725957
 20
20.7552408648903111
 30
0.0
  0
VERTEX
  5
CFC
  8
DEFAULT
 10
-7.088203783772542
 20
20.7552408648903111
 30
0.0
  0
VERTEX
  5
CFD
  8
DEFAULT
 10
-7.088203783772542
 20
20.9552408648901292
 30
0.0
  0
VERTEX
  5
CFE
  8
DEFAULT
 10
-7.0282037837725957
 20
20.9552408648901292
 30
0.0
  0
VERTEX
  5
CFF
  8
DEFAULT
 10
-7.0282037837725957
 20
21.2552408648903111
 30
0.0
  0
VERTEX
  5
D00
  8
DEFAULT
 10
-7.3282037837725511
 20
21.2552408648903111
 30
0.0
  0
VERTEX
  5
D01
  8
DEFAULT
 10
-7.3282037837725511
 20
21.5052408648903111
 30
0.0
  0
VERTEX
  5
D02
  8
DEFAULT
 10
-7.0282037837725957
 20
21.5052408648903111
 30
0.0
  0
VERTEX
  5
D03
  8
DEFAULT
 10
-7.0282037837725957
 20
21.9552408648901292
 30
0.0
  0
VERTEX
  5
D04
  8
DEFAULT
 10
-7.678203783772573
 20
21.9552408648901292
 30
0.0
  0
VERTEX
  5
D05
  8
DEFAULT
 10
-7.678203783772573
 20
18.9552408648901292
 30
0.0
  0
VERTEX
  5
D06
  8
DEFAULT
 10
-6.7282037837726421
 20
18.9552408648901292
 30
0.0
  0
VERTEX
  5
D07
  8
DEFAULT
 10
-6.7282037837726421
 20
15.9552408648901292
 30
0.0
  0
VERTEX
  5
D08
  8
DEFAULT
 10
-6.0282037837725957
 20
15.9552408648901292
 30
0.0
  0
VERTEX
  5
D09
  8
DEFAULT
 10
-5.8082037837725693
 20
18.0552408648904894
 30
0.0
  0
VERTEX
  5
D0A
  8
DEFAULT
 10
-5.8082037837725693
 20
18.1552408648903985
 30
0.0
  0
VERTEX
  5
D0B
  8
DEFAULT
 10
-5.8282037837725511
 20
18.1552408648903985
 30
0.0
  0
VERTEX
  5
D0C
  8
DEFAULT
 10
-5.8282037837725511
 20
18.9552408648901292
 30
0.0
  0
VERTEX
  5
D0D
  8
DEFAULT
 10
-5.5282037837725957
 20
18.9552408648901292
 30
0.0
  0
VERTEX
  5
D0E
  8
DEFAULT
 10
-5.5282037837725957
 20
18.1552408648903985
 30
0.0
  0
VERTEX
  5
D0F
  8
DEFAULT
 10
-5.5482037837725784
 20
18.1552408648903985
 30
0.0
  0
VERTEX
  5
D10
  8
DEFAULT
 10
-5.5482037837725784
 20
18.0552408648904894
 30
0.0
  0
VERTEX
  5
D11
  8
DEFAULT
 10
-5.3282037837725511
 20
15.9552408648901292
 30
0.0
  0
VERTEX
  5
D12
  8
DEFAULT
 10
-4.6282037837725047
 20
15.9552408648901292
 30
0.0
  0
VERTEX
  5
D13
  8
DEFAULT
 10
-4.6282037837725047
 20
18.9552408648901292
 30
0.0
  0
VERTEX
  5
D14
  8
DEFAULT
 10
-3.678203783772573
 20
18.9552408648901292
 30
0.0
  0
VERTEX
  5
D15
  8
DEFAULT
 10
-3.678203783772573
 20
21.9552408648901292
 30
0.0
  0
VERTEX
  5
D16
  8
DEFAULT
 10
-4.3282037837725511
 20
21.9552408648901292
 30
0.0
  0
VERTEX
  5
D17
  8
DEFAULT
 10
-4.3282037837725511
 20
21.5052408648903111
 30
0.0
  0
VERTEX
  5
D18
  8
DEFAULT
 10
-4.0282037837725957
 20
21.5052408648903111
 30
0.0
  0
VERTEX
  5
D19
  8
DEFAULT
 10
-4.0282037837725957
 20
21.2552408648903111
 30
0.0
  0
SEQEND
  5
D1A
  8
DEFAULT
  0
TEXT
  5
5E2
  8
DEFAULT
 10
-2.5911554611312648
 20
17.9597002539843409
 30
0.0
 40
2.6579234904193072
  1
380
  0
POLYLINE
  5
5E9
  8
OUTLINE
 66
     1
 10
0.0
 20
0.0
 30
0.0
 70
     1
  0
VERTEX
  5
D1B
  8
OUTLINE
 10
-12.2082535873828402
 20
24.2014655917380388
 30
0.0
  0
VERTEX
  5
D1C
  8
OUTLINE
 10
5.7581285037222179
 20
24.2014655917380388
 30
0.0
  0
VERTEX
  5
D1D
  8
OUTLINE
 10
5.7581285037222179
 20
12.0018011286191495
 30
0.0
  0
VERTEX
  5
D1E
  8
OUTLINE
 10
-12.2082535873828402
 20
12.0018011286191495
 30
0.0
  0
SEQEND
  5
D1F
  8
OUTLINE
  0
POLYLINE
  5
5EA
  8
OUTLINE
 66
     1
 10
0.0
 20
0.0
 30
0.0
 70
     1
  0
VERTEX
  5
D20
  8
OUTLINE
 10
11.2137914734225905
 20
24.2877938308846488
 30
0.0
  0
VERTEX
  5
D21
  8
OUTLINE
 10
29.1465226717859913
 20
24.2877938308846488
 30
0.0
  0
VERTEX
  5
D22
  8
OUTLINE
 10
29.1465226717859913
 20
12.6501585835551396
 30
0.0
  0
VERTEX
  5
D23
  8
OUTLINE
 10
11.2137914734225905
 20
12.6501585835551396
 30
0.0
  0
SEQEND
  5
D24
  8
OUTLINE
  0
POLYLINE
  5
5EB
  8
OUTLINE
 66
     1
 10
0.0
 20
0.0
 30
0.0
 70
     1
  0
VERTEX
  5
D25
  8
OUTLINE
 10
39.6944810423024208
 20
24.1140255500930607
 30
0.0
  0
VERTEX
  5
D26
  8
OUTLINE
 10
56.0551879314443795
 20
24.1140255500930607
 30
0.0
  0
VERTEX
  5
D27
  8
OUTLINE
 10
56.0551879314443795
 20
13.3492128503357907
 30
0.0
  0
VERTEX
  5
D28
  8
OUTLINE
 10
39.6944810423024208
 20
13.3492128503357907
 30
0.0
  0
SEQEND
  5
D29
  8
OUTLINE
  0
POLYLINE
  5
5EC
  8
OUTLINE
 66
     1
 10
0.0
 20
0.0
 30
0.0
 70
     1
  0
VERTEX
  5
D2A
  8
OUTLINE
 10
67.5134941794110546
 20
31.3674382762189801
 30
0.0
  0
VERTEX
  5
D2B
  8
OUTLINE
 10
97.3666361156142557
 20
31.3674382762189801
 30
0.0
  0
VERTEX
  5
D2C
  8
OUTLINE
 10
97.3666361156142557
 20
4.4225169826184887
 30
0.0
  0
VERTEX
  5
D2D
  8
OUTLINE
 10
67.5134941794110546
 20
4.4225169826184887
 30
0.0
  0
SEQEND
  5
D2E
  8
OUTLINE
  0
POLYLINE
  5
5ED
  8
OUTLINE
 66
     1
 10
0.0
 20
0.0
 30
0.0
 70
     1
  0
VERTEX
  5
D2F
  8
OUTLINE
 10
107.2851424469550068
 20
31.9050760024432414
 30
0.0
  0
VERTEX
  5
D30
  8
OUTLINE
 10
142.1760012825783122
 20
31.9050760024432414
 30
0.0
  0
VERTEX
  5
D31
  8
OUTLINE
 10
142.1760012825783122
 20
6.1722106189541668
 30
0.0
  0
VERTEX
  5
D32
  8
OUTLINE
 10
107.2851424469550068
 20
6.1722106189541668
 30
0.0
  0
SEQEND
  5
D33
  8
OUTLINE
  0
ENDSEC
  0
EOF
