  0
SECTION
  2
HEADER
  9
$ACADVER
  1
AC1024
  9
$ACADMAINTVER
 70
   226
  9
$DWGCODEPAGE
  3
ANSI_1252
  9
$INSBASE
 10
0.0
 20
0.0
 30
0.0
  9
$EXTMIN
 10
1.000000000000000E+20
 20
1.000000000000000E+20
 30
1.000000000000000E+20
  9
$EXTMAX
 10
-1.000000000000000E+20
 20
-1.000000000000000E+20
 30
-1.000000000000000E+20
  9
$LIMMIN
 10
0.0
 20
0.0
  9
$LIMMAX
 10
12.0
 20
9.0
  9
$ORTHOMODE
 70
     0
  9
$REGENMODE
 70
     1
  9
$FILLMODE
 70
     1
  9
$QTEXTMODE
 70
     0
  9
$MIRRTEXT
 70
     0
  9
$LTSCALE
 40
1.0
  9
$ATTMODE
 70
     1
  9
$TEXTSIZE
 40
0.2
  9
$TRACEWID
 40
0.05
  9
$TEXTSTYLE
  7
Standard
  9
$CLAYER
  8
0
  9
$CELTYPE
  6
ByLayer
  9
$CECOLOR
 62
   256
  9
$CELTSCALE
 40
1.0
  9
$DISPSILH
 70
     0
  9
$DIMSCALE
 40
1.0
  9
$DIMASZ
 40
0.18
  9
$DIMEXO
 40
0.0625
  9
$DIMDLI
 40
0.38
  9
$DIMRND
 40
0.0
  9
$DIMDLE
 40
0.0
  9
$DIMEXE
 40
0.18
  9
$DIMTP
 40
0.0
  9
$DIMTM
 40
0.0
  9
$DIMTXT
 40
0.18
  9
$DIMCEN
 40
0.09
  9
$DIMTSZ
 40
0.0
  9
$DIMTOL
 70
     0
  9
$DIMLIM
 70
     0
  9
$DIMTIH
 70
     1
  9
$DIMTOH
 70
     1
  9
$DIMSE1
 70
     0
  9
$DIMSE2
 70
     0
  9
$DIMTAD
 70
     0
  9
$DIMZIN
 70
     0
  9
$DIMBLK
  1

  9
$DIMASO
 70
     1
  9
$DIMSHO
 70
     1
  9
$DIMPOST
  1

  9
$DIMAPOST
  1

  9
$DIMALT
 70
     0
  9
$DIMALTD
 70
     2
  9
$DIMALTF
 40
25.4
  9
$DIMLFAC
 40
1.0
  9
$DIMTOFL
 70
     0
  9
$DIMTVP
 40
0.0
  9
$DIMTIX
 70
     0
  9
$DIMSOXD
 70
     0
  9
$DIMSAH
 70
     0
  9
$DIMBLK1
  1

  9
$DIMBLK2
  1

  9
$DIMSTYLE
  2
Standard
  9
$DIMCLRD
 70
     0
  9
$DIMCLRE
 70
     0
  9
$DIMCLRT
 70
     0
  9
$DIMTFAC
 40
1.0
  9
$DIMGAP
 40
0.09
  9
$DIMJUST
 70
     0
  9
$DIMSD1
 70
     0
  9
$DIMSD2
 70
     0
  9
$DIMTOLJ
 70
     1
  9
$DIMTZIN
 70
     0
  9
$DIMALTZ
 70
     0
  9
$DIMALTTZ
 70
     0
  9
$DIMUPT
 70
     0
  9
$DIMDEC
 70
     4
  9
$DIMTDEC
 70
     4
  9
$DIMALTU
 70
     2
  9
$DIMALTTD
 70
     2
  9
$DIMTXSTY
  7
Standard
  9
$DIMAUNIT
 70
     0
  9
$DIMADEC
 70
     0
  9
$DIMALTRND
 40
0.0
  9
$DIMAZIN
 70
     0
  9
$DIMDSEP
 70
    46
  9
$DIMATFIT
 70
     3
  9
$DIMFRAC
 70
     0
  9
$DIMLDRBLK
  1

  9
$DIMLUNIT
 70
     2
  9
$DIMLWD
 70
    -2
  9
$DIMLWE
 70
    -2
  9
$DIMTMOVE
 70
     0
  9
$DIMFXL
 40
1.0
  9
$DIMFXLON
 70
     0
  9
$DIMJOGANG
 40
0.7853981633974483
  9
$DIMTFILL
 70
     0
  9
$DIMTFILLCLR
 70
     0
  9
$DIMARCSYM
 70
     0
  9
$DIMLTYPE
  6

  9
$DIMLTEX1
  6

  9
$DIMLTEX2
  6

  9
$DIMTXTDIRECTION
 70
     0
  9
$LUNITS
 70
     2
  9
$LUPREC
 70
     4
  9
$SKETCHINC
 40
0.1
  9
$FILLETRAD
 40
0.0
  9
$AUNITS
 70
     0
  9
$AUPREC
 70
     0
  9
$MENU
  1
.
  9
$ELEVATION
 40
0.0
  9
$PELEVATION
 40
0.0
  9
$THICKNESS
 40
0.0
  9
$LIMCHECK
 70
     0
  9
$CHAMFERA
 40
0.0
  9
$CHAMFERB
 40
0.0
  9
$CHAMFERC
 40
0.0
  9
$CHAMFERD
 40
0.0
  9
$SKPOLY
 70
     0
  9
$TDCREATE
 40
2459262.878900463
  9
$TDUCREATE
 40
2459263.087233797
  9
$TDUPDATE
 40
2459262.878900463
  9
$TDUUPDATE
 40
2459263.087233797
  9
$TDINDWG
 40
0.0000000000
  9
$TDUSRTIMER
 40
0.0000000000
  9
$USRTIMER
 70
     1
  9
$ANGBASE
 50
0.0
  9
$ANGDIR
 70
     0
  9
$PDMODE
 70
     0
  9
$PDSIZE
 40
0.0
  9
$PLINEWID
 40
0.0
  9
$SPLFRAME
 70
     0
  9
$SPLINETYPE
 70
     6
  9
$SPLINESEGS
 70
     8
  9
$HANDSEED
  5
E0
  9
$SURFTAB1
 70
     6
  9
$SURFTAB2
 70
     6
  9
$SURFTYPE
 70
     6
  9
$SURFU
 70
     6
  9
$SURFV
 70
     6
  9
$UCSBASE
  2

  9
$UCSNAME
  2

  9
$UCSORG
 10
0.0
 20
0.0
 30
0.0
  9
$UCSXDIR
 10
1.0
 20
0.0
 30
0.0
  9
$UCSYDIR
 10
0.0
 20
1.0
 30
0.0
  9
$UCSORTHOREF
  2

  9
$UCSORTHOVIEW
 70
     0
  9
$UCSORGTOP
 10
0.0
 20
0.0
 30
0.0
  9
$UCSORGBOTTOM
 10
0.0
 20
0.0
 30
0.0
  9
$UCSORGLEFT
 10
0.0
 20
0.0
 30
0.0
  9
$UCSORGRIGHT
 10
0.0
 20
0.0
 30
0.0
  9
$UCSORGFRONT
 10
0.0
 20
0.0
 30
0.0
  9
$UCSORGBACK
 10
0.0
 20
0.0
 30
0.0
  9
$PUCSBASE
  2

  9
$PUCSNAME
  2

  9
$PUCSORG
 10
0.0
 20
0.0
 30
0.0
  9
$PUCSXDIR
 10
1.0
 20
0.0
 30
0.0
  9
$PUCSYDIR
 10
0.0
 20
1.0
 30
0.0
  9
$PUCSORTHOREF
  2

  9
$PUCSORTHOVIEW
 70
     0
  9
$PUCSORGTOP
 10
0.0
 20
0.0
 30
0.0
  9
$PUCSORGBOTTOM
 10
0.0
 20
0.0
 30
0.0
  9
$PUCSORGLEFT
 10
0.0
 20
0.0
 30
0.0
  9
$PUCSORGRIGHT
 10
0.0
 20
0.0
 30
0.0
  9
$PUCSORGFRONT
 10
0.0
 20
0.0
 30
0.0
  9
$PUCSORGBACK
 10
0.0
 20
0.0
 30
0.0
  9
$USERI1
 70
     0
  9
$USERI2
 70
     0
  9
$USERI3
 70
     0
  9
$USERI4
 70
     0
  9
$USERI5
 70
     0
  9
$USERR1
 40
0.0
  9
$USERR2
 40
0.0
  9
$USERR3
 40
0.0
  9
$USERR4
 40
0.0
  9
$USERR5
 40
0.0
  9
$WORLDVIEW
 70
     1
  9
$SHADEDGE
 70
     3
  9
$SHADEDIF
 70
    70
  9
$TILEMODE
 70
     1
  9
$MAXACTVP
 70
    64
  9
$PINSBASE
 10
0.0
 20
0.0
 30
0.0
  9
$PLIMCHECK
 70
     0
  9
$PEXTMIN
 10
1.000000000000000E+20
 20
1.000000000000000E+20
 30
1.000000000000000E+20
  9
$PEXTMAX
 10
-1.000000000000000E+20
 20
-1.000000000000000E+20
 30
-1.000000000000000E+20
  9
$PLIMMIN
 10
0.0
 20
0.0
  9
$PLIMMAX
 10
12.0
 20
9.0
  9
$UNITMODE
 70
     0
  9
$VISRETAIN
 70
     1
  9
$PLINEGEN
 70
     0
  9
$PSLTSCALE
 70
     1
  9
$TREEDEPTH
 70
  3020
  9
$CMLSTYLE
  2
Standard
  9
$CMLJUST
 70
     0
  9
$CMLSCALE
 40
1.0
  9
$PROXYGRAPHICS
 70
     1
  9
$MEASUREMENT
 70
     0
  9
$CELWEIGHT
370
    -1
  9
$ENDCAPS
280
     0
  9
$JOINSTYLE
280
     0
  9
$LWDISPLAY
290
     1
  9
$INSUNITS
 70
     0
  9
$HYPERLINKBASE
  1

  9
$STYLESHEET
  1

  9
$XEDIT
290
     1
  9
$CEPSNTYPE
380
     0
  9
$PSTYLEMODE
290
     1
  9
$FINGERPRINTGUID
  2
{9CCCA6B9-FB15-BB4D-955C-CC4F38B9BF7D}
  9
$VERSIONGUID
  2
{3C9F2F55-6D27-924C-9233-6A5DD9039D19}
  9
$EXTNAMES
290
     1
  9
$PSVPSCALE
 40
0.0
  9
$OLESTARTUP
290
     0
  9
$SORTENTS
280
   127
  9
$INDEXCTL
280
     0
  9
$HIDETEXT
280
     1
  9
$XCLIPFRAME
280
     2
  9
$HALOGAP
280
     0
  9
$OBSCOLOR
 70
   257
  9
$OBSLTYPE
280
     0
  9
$INTERSECTIONDISPLAY
280
     0
  9
$INTERSECTIONCOLOR
 70
   257
  9
$DIMASSOC
280
     2
  9
$PROJECTNAME
  1

  9
$CAMERADISPLAY
290
     0
  9
$LENSLENGTH
 40
50.0
  9
$CAMERAHEIGHT
 40
0.0
  9
$STEPSPERSEC
 40
2.0
  9
$STEPSIZE
 40
6.0
  9
$3DDWFPREC
 40
2.0
  9
$PSOLWIDTH
 40
0.25
  9
$PSOLHEIGHT
 40
4.0
  9
$LOFTANG1
 40
1.570796326794896
  9
$LOFTANG2
 40
1.570796326794896
  9
$LOFTMAG1
 40
0.0
  9
$LOFTMAG2
 40
0.0
  9
$LOFTPARAM
 70
     7
  9
$LOFTNORMALS
280
     1
  9
$LATITUDE
 40
37.795
  9
$LONGITUDE
 40
-122.394
  9
$NORTHDIRECTION
 40
0.0
  9
$TIMEZONE
 70
 -8000
  9
$LIGHTGLYPHDISPLAY
280
     1
  9
$TILEMODELIGHTSYNCH
280
     1
  9
$CMATERIAL
347
11
  9
$SOLIDHIST
280
     0
  9
$SHOWHIST
280
     1
  9
$DWFFRAME
280
     2
  9
$DGNFRAME
280
     0
  9
$REALWORLDSCALE
290
     1
  9
$INTERFERECOLOR
 62
     1
  9
$INTERFEREOBJVS
345
33
  9
$INTERFEREVPVS
346
30
  9
$CSHADOW
280
     0
  9
$SHADOWPLANELOCATION
 40
0.0
  0
ENDSEC
  0
SECTION
  2
CLASSES
  0
CLASS
  1
ACDBDICTIONARYWDFLT
  2
AcDbDictionaryWithDefault
  3
ObjectDBX Classes
 90
        0
 91
        1
280
     0
281
     0
  0
CLASS
  1
MATERIAL
  2
AcDbMaterial
  3
ObjectDBX Classes
 90
     1153
 91
        3
280
     0
281
     0
  0
CLASS
  1
VISUALSTYLE
  2
AcDbVisualStyle
  3
ObjectDBX Classes
 90
     4095
 91
       24
280
     0
281
     0
  0
CLASS
  1
SCALE
  2
AcDbScale
  3
ObjectDBX Classes
 90
     1153
 91
       17
280
     0
281
     0
  0
CLASS
  1
TABLESTYLE
  2
AcDbTableStyle
  3
ObjectDBX Classes
 90
     4095
 91
        1
280
     0
281
     0
  0
CLASS
  1
MLEADERSTYLE
  2
AcDbMLeaderStyle
  3
ACDB_MLEADERSTYLE_CLASS
 90
     4095
 91
        1
280
     0
281
     0
  0
CLASS
  1
ACDBSECTIONVIEWSTYLE
  2
AcDbSectionViewStyle
  3
ObjectDBX Classes
 90
     1025
 91
        1
280
     0
281
     0
  0
CLASS
  1
ACDBDETAILVIEWSTYLE
  2
AcDbDetailViewStyle
  3
ObjectDBX Classes
 90
     1025
 91
        1
280
     0
281
     0
  0
CLASS
  1
DICTIONARYVAR
  2
AcDbDictionaryVar
  3
ObjectDBX Classes
 90
        0
 91
        5
280
     0
281
     0
  0
CLASS
  1
CELLSTYLEMAP
  2
AcDbCellStyleMap
  3
ObjectDBX Classes
 90
     1152
 91
        1
280
     0
281
     0
  0
ENDSEC
  0
SECTION
  2
TABLES
  0
TABLE
  2
VPORT
  5
8
330
0
100
AcDbSymbolTable
 70
     1
  0
VPORT
  5
57
330
8
100
AcDbSymbolTableRecord
100
AcDbViewportTableRecord
  2
*Active
 70
     0
 10
0.0
 20
0.0
 11
1.0
 21
1.0
 12
0.0
 22
0.0
 13
0.0
 23
0.0
 14
1.0
 24
1.0
 15
0.0
 25
0.0
 16
0.0
 26
0.0
 36
1.0
 17
306.0
 27
-396.0
 37
0.0
 40
807.84
 41
0.7727272727272727
 42
50.0
 43
0.0
 44
0.0
 50
0.0
 51
0.0
 71
     0
 72
   100
 73
     1
 74
     0
 75
     1
 76
     0
 77
     0
 78
     0
281
     0
 65
     1
110
0.0
120
0.0
130
0.0
111
1.0
121
0.0
131
0.0
112
0.0
122
1.0
132
0.0
 79
     0
146
0.0
 60
     3
 61
     5
292
     1
282
     1
141
0.0
142
0.0
 63
   250
421
  3355443
  0
ENDTAB
  0
TABLE
  2
LTYPE
  5
5
330
0
100
AcDbSymbolTable
 70
     1
  0
LTYPE
  5
5B
330
5
100
AcDbSymbolTableRecord
100
AcDbLinetypeTableRecord
  2
ByBlock
 70
     0
  3

 72
    65
 73
     0
 40
0.0
  0
LTYPE
  5
5C
330
5
100
AcDbSymbolTableRecord
100
AcDbLinetypeTableRecord
  2
ByLayer
 70
     0
  3

 72
    65
 73
     0
 40
0.0
  0
LTYPE
  5
5D
330
5
100
AcDbSymbolTableRecord
100
AcDbLinetypeTableRecord
  2
Continuous
 70
     0
  3
Solid line
 72
    65
 73
     0
 40
0.0
  0
ENDTAB
  0
TABLE
  2
LAYER
  5
2
330
0
100
AcDbSymbolTable
 70
     2
  0
LAYER
  5
54
330
2
100
AcDbSymbolTableRecord
100
AcDbLayerTableRecord
  2
0
 70
     0
 62
     7
  6
Continuous
370
    -3
390
F
347
21
  0
LAYER
  5
78
330
2
100
AcDbSymbolTableRecord
100
AcDbLayerTableRecord
  2
Layer 1
 70
     0
 62
     7
  6
Continuous
370
     0
390
F
347
21
  0
ENDTAB
  0
TABLE
  2
STYLE
  5
3
330
0
100
AcDbSymbolTable
 70
     2
  0
STYLE
  5
55
330
3
100
AcDbSymbolTableRecord
100
AcDbTextStyleTableRecord
  2
Standard
 70
     0
 40
0.0
 41
1.0
 50
0.0
 71
     0
 42
0.2
  3
txt
  4

  0
STYLE
  5
5A
330
3
100
AcDbSymbolTableRecord
100
AcDbTextStyleTableRecord
  2
Annotative
 70
     0
 40
0.0
 41
1.0
 50
0.0
 71
     0
 42
0.2
  3
txt
  4

1001
AcadAnnotative
1000
AnnotativeData
1002
{
1070
     1
1070
     1
1002
}
  0
ENDTAB
  0
TABLE
  2
VIEW
  5
6
330
0
100
AcDbSymbolTable
 70
     0
  0
ENDTAB
  0
TABLE
  2
UCS
  5
7
330
0
100
AcDbSymbolTable
 70
     0
  0
ENDTAB
  0
TABLE
  2
APPID
  5
9
330
0
100
AcDbSymbolTable
 70
     2
  0
APPID
  5
56
330
9
100
AcDbSymbolTableRecord
100
AcDbRegAppTableRecord
  2
ACAD
 70
     0
  0
APPID
  5
5E
330
9
100
AcDbSymbolTableRecord
100
AcDbRegAppTableRecord
  2
AcadAnnotative
 70
     0
  0
ENDTAB
  0
TABLE
  2
DIMSTYLE
  5
A
330
0
100
AcDbSymbolTable
 70
     2
100
AcDbDimStyleTable
 71
     0
  0
DIMSTYLE
105
58
330
A
100
AcDbSymbolTableRecord
100
AcDbDimStyleTableRecord
  2
Standard
 70
     0
340
55
  0
DIMSTYLE
105
59
330
A
100
AcDbSymbolTableRecord
100
AcDbDimStyleTableRecord
  2
Annotative
 70
     0
340
55
1001
AcadAnnotative
1000
AnnotativeData
1002
{
1070
     1
1070
     1
1002
}
  0
ENDTAB
  0
TABLE
  2
BLOCK_RECORD
  5
1
330
0
100
AcDbSymbolTable
 70
     2
  0
BLOCK_RECORD
  5
70
330
1
100
AcDbSymbolTableRecord
100
AcDbBlockTableRecord
  2
*Model_Space
340
73
 70
     0
280
     1
281
     0
  0
BLOCK_RECORD
  5
6C
330
1
100
AcDbSymbolTableRecord
100
AcDbBlockTableRecord
  2
*Paper_Space
340
6F
 70
     0
280
     1
281
     0
  0
BLOCK_RECORD
  5
74
330
1
100
AcDbSymbolTableRecord
100
AcDbBlockTableRecord
  2
*Paper_Space0
340
77
 70
     0
280
     1
281
     0
  0
BLOCK_RECORD
  5
79
330
1
100
AcDbSymbolTableRecord
100
AcDbBlockTableRecord
  2
Block_0
340
0
102
{BLKREFS
331
7A
102
}
 70
     0
280
     1
281
     0
  0
ENDTAB
  0
ENDSEC
  0
SECTION
  2
BLOCKS
  0
BLOCK
  5
71
330
70
100
AcDbEntity
  8
0
100
AcDbBlockBegin
  2
*Model_Space
 70
     0
 10
0.0
 20
0.0
 30
0.0
  3
*Model_Space
  1

  0
ENDBLK
  5
72
330
70
100
AcDbEntity
  8
0
100
AcDbBlockEnd
  0
BLOCK
  5
6D
330
6C
100
AcDbEntity
 67
     1
  8
0
100
AcDbBlockBegin
  2
*Paper_Space
 70
     0
 10
0.0
 20
0.0
 30
0.0
  3
*Paper_Space
  1

  0
ENDBLK
  5
6E
330
6C
100
AcDbEntity
 67
     1
  8
0
100
AcDbBlockEnd
  0
BLOCK
  5
75
330
74
100
AcDbEntity
 67
     1
  8
0
100
AcDbBlockBegin
  2
*Paper_Space0
 70
     0
 10
0.0
 20
0.0
 30
0.0
  3
*Paper_Space0
  1

  0
ENDBLK
  5
76
330
74
100
AcDbEntity
 67
     1
  8
0
100
AcDbBlockEnd
  0
BLOCK
  5
7B
330
79
100
AcDbEntity
  8
0
100
AcDbBlockBegin
  2
Block_0
 70
     0
 10
0.0
 20
0.0
 30
0.0
  3
Block_0
  1

  0
SPLINE
  5
7D
330
79
100
AcDbEntity
  8
Layer 1
100
AcDbSpline
210
0.0
220
0.0
230
1.0
 70
     9
 71
     3
 72
    35
 73
    31
 74
     0
 42
0.0000000001
 43
0.0000000001
 40
0.0
 40
0.0
 40
0.0
 40
0.0
 40
1.0
 40
1.0
 40
1.0
 40
2.0
 40
2.0
 40
2.0
 40
3.0
 40
3.0
 40
3.0
 40
4.0
 40
4.0
 40
4.0
 40
5.0
 40
5.0
 40
5.0
 40
6.0
 40
6.0
 40
6.0
 40
7.0
 40
7.0
 40
7.0
 40
8.0
 40
8.0
 40
8.0
 40
9.0
 40
9.0
 40
9.0
 40
10.0
 40
10.0
 40
10.0
 40
10.0
 10
267.23193359375
 20
-400.5537109375
 30
0.0
 10
267.0556640625
 20
-400.5537109375
 30
0.0
 10
266.90771484375
 20
-400.4931640625
 30
0.0
 10
266.78759765625
 20
-400.3730468749999
 30
0.0
 10
266.66748046875
 20
-400.25390625
 30
0.0
 10
266.60791015625
 20
-400.1054687499999
 30
0.0
 10
266.60791015625
 20
-399.9296875
 30
0.0
 10
266.60791015625
 20
-399.9296875
 30
0.0
 10
266.60791015625
 20
-391.8056640625
 30
0.0
 10
266.60791015625
 20
-391.8056640625
 30
0.0
 10
266.60791015625
 20
-391.62158203125
 30
0.0
 10
266.66748046875
 20
-391.4716796875
 30
0.0
 10
266.78759765625
 20
-391.35546875
 30
0.0
 10
266.90771484375
 20
-391.23974609375
 30
0.0
 10
267.0556640625
 20
-391.181640625
 30
0.0
 10
267.23193359375
 20
-391.181640625
 30
0.0
 10
267.41552734375
 20
-391.181640625
 30
0.0
 10
267.5654296875
 20
-391.23974609375
 30
0.0
 10
267.681640625
 20
-391.35546875
 30
0.0
 10
267.79736328125
 20
-391.4716796875
 30
0.0
 10
267.85595703125
 20
-391.62158203125
 30
0.0
 10
267.85595703125
 20
-391.8056640625
 30
0.0
 10
267.85595703125
 20
-391.8056640625
 30
0.0
 10
267.85595703125
 20
-399.9296875
 30
0.0
 10
267.85595703125
 20
-399.9296875
 30
0.0
 10
267.85595703125
 20
-400.1054687499999
 30
0.0
 10
267.79736328125
 20
-400.25390625
 30
0.0
 10
267.681640625
 20
-400.3730468749999
 30
0.0
 10
267.5654296875
 20
-400.4931640625
 30
0.0
 10
267.41552734375
 20
-400.5537109375
 30
0.0
 10
267.23193359375
 20
-400.5537109375
 30
0.0
  0
HATCH
  5
7E
330
79
100
AcDbEntity
  8
Layer 1
 62
   250
420
  2301728
440
 33554687
100
AcDbHatch
 10
0.0
 20
0.0
 30
0.0
210
0.0
220
0.0
230
1.0
  2
SOLID
 70
     1
 71
     1
 91
        1
 92
        1
 93
        1
 72
     4
 94
        3
 73
     0
 74
     0
 95
       35
 96
       31
 40
0.0
 40
0.0
 40
0.0
 40
0.0
 40
1.0
 40
1.0
 40
1.0
 40
2.0
 40
2.0
 40
2.0
 40
3.0
 40
3.0
 40
3.0
 40
4.0
 40
4.0
 40
4.0
 40
5.0
 40
5.0
 40
5.0
 40
6.0
 40
6.0
 40
6.0
 40
7.0
 40
7.0
 40
7.0
 40
8.0
 40
8.0
 40
8.0
 40
9.0
 40
9.0
 40
9.0
 40
10.0
 40
10.0
 40
10.0
 40
10.0
 10
267.23193359375
 20
-400.5537109375
 10
267.0556640625
 20
-400.5537109375
 10
266.90771484375
 20
-400.4931640625
 10
266.78759765625
 20
-400.3730468749999
 10
266.66748046875
 20
-400.25390625
 10
266.60791015625
 20
-400.1054687499999
 10
266.60791015625
 20
-399.9296875
 10
266.60791015625
 20
-399.9296875
 10
266.60791015625
 20
-391.8056640625
 10
266.60791015625
 20
-391.8056640625
 10
266.60791015625
 20
-391.62158203125
 10
266.66748046875
 20
-391.4716796875
 10
266.78759765625
 20
-391.35546875
 10
266.90771484375
 20
-391.23974609375
 10
267.0556640625
 20
-391.181640625
 10
267.23193359375
 20
-391.181640625
 10
267.41552734375
 20
-391.181640625
 10
267.5654296875
 20
-391.23974609375
 10
267.681640625
 20
-391.35546875
 10
267.79736328125
 20
-391.4716796875
 10
267.85595703125
 20
-391.62158203125
 10
267.85595703125
 20
-391.8056640625
 10
267.85595703125
 20
-391.8056640625
 10
267.85595703125
 20
-399.9296875
 10
267.85595703125
 20
-399.9296875
 10
267.85595703125
 20
-400.1054687499999
 10
267.79736328125
 20
-400.25390625
 10
267.681640625
 20
-400.3730468749999
 10
267.5654296875
 20
-400.4931640625
 10
267.41552734375
 20
-400.5537109375
 10
267.23193359375
 20
-400.5537109375
 97
        0
 97
        1
330
7D
 75
     2
 76
     1
 98
        1
 10
0.0
 20
0.0
450
        0
451
        0
460
0.0
461
0.0
452
        0
462
0.0
453
        0
470

  0
SPLINE
  5
7F
330
79
100
AcDbEntity
  8
Layer 1
100
AcDbSpline
210
0.0
220
0.0
230
1.0
 70
     9
 71
     3
 72
    68
 73
    64
 74
     0
 42
0.0000000001
 43
0.0000000001
 40
0.0
 40
0.0
 40
0.0
 40
0.0
 40
1.0
 40
1.0
 40
1.0
 40
2.0
 40
2.0
 40
2.0
 40
3.0
 40
3.0
 40
3.0
 40
4.0
 40
4.0
 40
4.0
 40
5.0
 40
5.0
 40
5.0
 40
6.0
 40
6.0
 40
6.0
 40
7.0
 40
7.0
 40
7.0
 40
8.0
 40
8.0
 40
8.0
 40
9.0
 40
9.0
 40
9.0
 40
10.0
 40
10.0
 40
10.0
 40
11.0
 40
11.0
 40
11.0
 40
12.0
 40
12.0
 40
12.0
 40
13.0
 40
13.0
 40
13.0
 40
14.0
 40
14.0
 40
14.0
 40
15.0
 40
15.0
 40
15.0
 40
16.0
 40
16.0
 40
16.0
 40
17.0
 40
17.0
 40
17.0
 40
18.0
 40
18.0
 40
18.0
 40
19.0
 40
19.0
 40
19.0
 40
20.0
 40
20.0
 40
20.0
 40
21.0
 40
21.0
 40
21.0
 40
21.0
 10
270.86767578125
 20
-400.5537109375
 30
0.0
 10
270.69140625
 20
-400.5537109375
 30
0.0
 10
270.54541015625
 20
-400.4931640625
 30
0.0
 10
270.4296875
 20
-400.3730468749999
 30
0.0
 10
270.3134765625
 20
-400.25390625
 30
0.0
 10
270.255859375
 20
-400.1054687499999
 30
0.0
 10
270.255859375
 20
-399.9296875
 30
0.0
 10
270.255859375
 20
-399.9296875
 30
0.0
 10
270.255859375
 20
-391.8056640625
 30
0.0
 10
270.255859375
 20
-391.8056640625
 30
0.0
 10
270.255859375
 20
-391.62158203125
 30
0.0
 10
270.3134765625
 20
-391.4716796875
 30
0.0
 10
270.4296875
 20
-391.35546875
 30
0.0
 10
270.54541015625
 20
-391.23974609375
 30
0.0
 10
270.69140625
 20
-391.181640625
 30
0.0
 10
270.86767578125
 20
-391.181640625
 30
0.0
 10
271.0595703125
 20
-391.181640625
 30
0.0
 10
271.2197265625
 20
-391.2578125
 30
0.0
 10
271.34765625
 20
-391.40966796875
 30
0.0
 10
271.34765625
 20
-391.40966796875
 30
0.0
 10
276.57958984375
 20
-398.369140625
 30
0.0
 10
276.57958984375
 20
-398.369140625
 30
0.0
 10
276.57958984375
 20
-398.369140625
 30
0.0
 10
276.57958984375
 20
-391.8056640625
 30
0.0
 10
276.57958984375
 20
-391.8056640625
 30
0.0
 10
276.57958984375
 20
-391.62158203125
 30
0.0
 10
276.6396484375
 20
-391.4716796875
 30
0.0
 10
276.759765625
 20
-391.35546875
 30
0.0
 10
276.8798828125
 20
-391.23974609375
 30
0.0
 10
277.02783203125
 20
-391.181640625
 30
0.0
 10
277.20361328125
 20
-391.181640625
 30
0.0
 10
277.3876953125
 20
-391.181640625
 30
0.0
 10
277.53564453125
 20
-391.23974609375
 30
0.0
 10
277.6474609375
 20
-391.35546875
 30
0.0
 10
277.759765625
 20
-391.4716796875
 30
0.0
 10
277.8154296875
 20
-391.62158203125
 30
0.0
 10
277.8154296875
 20
-391.8056640625
 30
0.0
 10
277.8154296875
 20
-391.8056640625
 30
0.0
 10
277.8154296875
 20
-399.9296875
 30
0.0
 10
277.8154296875
 20
-399.9296875
 30
0.0
 10
277.8154296875
 20
-400.1054687499999
 30
0.0
 10
277.759765625
 20
-400.25390625
 30
0.0
 10
277.6474609375
 20
-400.3730468749999
 30
0.0
 10
277.53564453125
 20
-400.4931640625
 30
0.0
 10
277.3876953125
 20
-400.5537109375
 30
0.0
 10
277.20361328125
 20
-400.5537109375
 30
0.0
 10
277.12353515625
 20
-400.5537109375
 30
0.0
 10
277.03759765625
 20
-400.53515625
 30
0.0
 10
276.94580078125
 20
-400.4990234374999
 30
0.0
 10
276.853515625
 20
-400.4638671875
 30
0.0
 10
276.779296875
 20
-400.4091796875
 30
0.0
 10
276.7236328125
 20
-400.337890625
 30
0.0
 10
276.7236328125
 20
-400.337890625
 30
0.0
 10
271.49169921875
 20
-393.3779296875
 30
0.0
 10
271.49169921875
 20
-393.3779296875
 30
0.0
 10
271.49169921875
 20
-393.3779296875
 30
0.0
 10
271.49169921875
 20
-399.9296875
 30
0.0
 10
271.49169921875
 20
-399.9296875
 30
0.0
 10
271.49169921875
 20
-400.1054687499999
 30
0.0
 10
271.43359375
 20
-400.25390625
 30
0.0
 10
271.31787109375
 20
-400.3730468749999
 30
0.0
 10
271.20166015625
 20
-400.4931640625
 30
0.0
 10
271.0517578125
 20
-400.5537109375
 30
0.0
 10
270.86767578125
 20
-400.5537109375
 30
0.0
  0
HATCH
  5
80
330
79
100
AcDbEntity
  8
Layer 1
 62
   250
420
  2301728
440
 33554687
100
AcDbHatch
 10
0.0
 20
0.0
 30
0.0
210
0.0
220
0.0
230
1.0
  2
SOLID
 70
     1
 71
     1
 91
        1
 92
        1
 93
        1
 72
     4
 94
        3
 73
     0
 74
     0
 95
       68
 96
       64
 40
0.0
 40
0.0
 40
0.0
 40
0.0
 40
1.0
 40
1.0
 40
1.0
 40
2.0
 40
2.0
 40
2.0
 40
3.0
 40
3.0
 40
3.0
 40
4.0
 40
4.0
 40
4.0
 40
5.0
 40
5.0
 40
5.0
 40
6.0
 40
6.0
 40
6.0
 40
7.0
 40
7.0
 40
7.0
 40
8.0
 40
8.0
 40
8.0
 40
9.0
 40
9.0
 40
9.0
 40
10.0
 40
10.0
 40
10.0
 40
11.0
 40
11.0
 40
11.0
 40
12.0
 40
12.0
 40
12.0
 40
13.0
 40
13.0
 40
13.0
 40
14.0
 40
14.0
 40
14.0
 40
15.0
 40
15.0
 40
15.0
 40
16.0
 40
16.0
 40
16.0
 40
17.0
 40
17.0
 40
17.0
 40
18.0
 40
18.0
 40
18.0
 40
19.0
 40
19.0
 40
19.0
 40
20.0
 40
20.0
 40
20.0
 40
21.0
 40
21.0
 40
21.0
 40
21.0
 10
270.86767578125
 20
-400.5537109375
 10
270.69140625
 20
-400.5537109375
 10
270.54541015625
 20
-400.4931640625
 10
270.4296875
 20
-400.3730468749999
 10
270.3134765625
 20
-400.25390625
 10
270.255859375
 20
-400.1054687499999
 10
270.255859375
 20
-399.9296875
 10
270.255859375
 20
-399.9296875
 10
270.255859375
 20
-391.8056640625
 10
270.255859375
 20
-391.8056640625
 10
270.255859375
 20
-391.62158203125
 10
270.3134765625
 20
-391.4716796875
 10
270.4296875
 20
-391.35546875
 10
270.54541015625
 20
-391.23974609375
 10
270.69140625
 20
-391.181640625
 10
270.86767578125
 20
-391.181640625
 10
271.0595703125
 20
-391.181640625
 10
271.2197265625
 20
-391.2578125
 10
271.34765625
 20
-391.40966796875
 10
271.34765625
 20
-391.40966796875
 10
276.57958984375
 20
-398.369140625
 10
276.57958984375
 20
-398.369140625
 10
276.57958984375
 20
-398.369140625
 10
276.57958984375
 20
-391.8056640625
 10
276.57958984375
 20
-391.8056640625
 10
276.57958984375
 20
-391.62158203125
 10
276.6396484375
 20
-391.4716796875
 10
276.759765625
 20
-391.35546875
 10
276.8798828125
 20
-391.23974609375
 10
277.02783203125
 20
-391.181640625
 10
277.20361328125
 20
-391.181640625
 10
277.3876953125
 20
-391.181640625
 10
277.53564453125
 20
-391.23974609375
 10
277.6474609375
 20
-391.35546875
 10
277.759765625
 20
-391.4716796875
 10
277.8154296875
 20
-391.62158203125
 10
277.8154296875
 20
-391.8056640625
 10
277.8154296875
 20
-391.8056640625
 10
277.8154296875
 20
-399.9296875
 10
277.8154296875
 20
-399.9296875
 10
277.8154296875
 20
-400.1054687499999
 10
277.759765625
 20
-400.25390625
 10
277.6474609375
 20
-400.3730468749999
 10
277.53564453125
 20
-400.4931640625
 10
277.3876953125
 20
-400.5537109375
 10
277.20361328125
 20
-400.5537109375
 10
277.12353515625
 20
-400.5537109375
 10
277.03759765625
 20
-400.53515625
 10
276.94580078125
 20
-400.4990234374999
 10
276.853515625
 20
-400.4638671875
 10
276.779296875
 20
-400.4091796875
 10
276.7236328125
 20
-400.337890625
 10
276.7236328125
 20
-400.337890625
 10
271.49169921875
 20
-393.3779296875
 10
271.49169921875
 20
-393.3779296875
 10
271.49169921875
 20
-393.3779296875
 10
271.49169921875
 20
-399.9296875
 10
271.49169921875
 20
-399.9296875
 10
271.49169921875
 20
-400.1054687499999
 10
271.43359375
 20
-400.25390625
 10
271.31787109375
 20
-400.3730468749999
 10
271.20166015625
 20
-400.4931640625
 10
271.0517578125
 20
-400.5537109375
 10
270.86767578125
 20
-400.5537109375
 97
        0
 97
        1
330
7F
 75
     2
 76
     1
 98
        1
 10
0.0
 20
0.0
450
        0
451
        0
460
0.0
461
0.0
452
        0
462
0.0
453
        0
470

  0
SPLINE
  5
81
330
79
100
AcDbEntity
  8
Layer 1
100
AcDbSpline
210
0.0
220
0.0
230
1.0
 70
    11
 71
     3
 72
    32
 73
    28
 74
     0
 42
0.0000000001
 43
0.0000000001
 40
0.0
 40
0.0
 40
0.0
 40
0.0
 40
1.0
 40
1.0
 40
1.0
 40
2.0
 40
2.0
 40
2.0
 40
3.0
 40
3.0
 40
3.0
 40
4.0
 40
4.0
 40
4.0
 40
5.0
 40
5.0
 40
5.0
 40
6.0
 40
6.0
 40
6.0
 40
7.0
 40
7.0
 40
7.0
 40
8.0
 40
8.0
 40
8.0
 40
9.0
 40
9.0
 40
9.0
 40
9.0
 10
281.4638671875
 20
-399.44921875
 30
0.0
 10
281.4638671875
 20
-399.44921875
 30
0.0
 10
283.01171875
 20
-399.44921875
 30
0.0
 10
283.01171875
 20
-399.44921875
 30
0.0
 10
283.68359375
 20
-399.44921875
 30
0.0
 10
284.27783203125
 20
-399.2958984375
 30
0.0
 10
284.79345703125
 20
-398.9873046875
 30
0.0
 10
285.3095703125
 20
-398.6796875
 30
0.0
 10
285.71533203125
 20
-398.255859375
 30
0.0
 10
286.01171875
 20
-397.7158203125
 30
0.0
 10
286.3076171875
 20
-397.17578125
 30
0.0
 10
286.45556640625
 20
-396.5576171875
 30
0.0
 10
286.45556640625
 20
-395.86181640625
 30
0.0
 10
286.45556640625
 20
-395.15771484375
 30
0.0
 10
286.3076171875
 20
-394.53759765625
 30
0.0
 10
286.01171875
 20
-394.001953125
 30
0.0
 10
285.71533203125
 20
-393.4658203125
 30
0.0
 10
285.3095703125
 20
-393.0458984375
 30
0.0
 10
284.79345703125
 20
-392.74169921875
 30
0.0
 10
284.27783203125
 20
-392.43798828125
 30
0.0
 10
283.68359375
 20
-392.28564453125
 30
0.0
 10
283.01171875
 20
-392.28564453125
 30
0.0
 10
283.01171875
 20
-392.28564453125
 30
0.0
 10
281.4638671875
 20
-392.28564453125
 30
0.0
 10
281.4638671875
 20
-392.28564453125
 30
0.0
 10
281.4638671875
 20
-392.28564453125
 30
0.0
 10
281.4638671875
 20
-399.44921875
 30
0.0
 10
281.4638671875
 20
-399.44921875
 30
0.0
  0
SPLINE
  5
82
330
79
100
AcDbEntity
  8
Layer 1
100
AcDbSpline
210
0.0
220
0.0
230
1.0
 70
     9
 71
     3
 72
    50
 73
    46
 74
     0
 42
0.0000000001
 43
0.0000000001
 40
0.0
 40
0.0
 40
0.0
 40
0.0
 40
1.0
 40
1.0
 40
1.0
 40
2.0
 40
2.0
 40
2.0
 40
3.0
 40
3.0
 40
3.0
 40
4.0
 40
4.0
 40
4.0
 40
5.0
 40
5.0
 40
5.0
 40
6.0
 40
6.0
 40
6.0
 40
7.0
 40
7.0
 40
7.0
 40
8.0
 40
8.0
 40
8.0
 40
9.0
 40
9.0
 40
9.0
 40
10.0
 40
10.0
 40
10.0
 40
11.0
 40
11.0
 40
11.0
 40
12.0
 40
12.0
 40
12.0
 40
13.0
 40
13.0
 40
13.0
 40
14.0
 40
14.0
 40
14.0
 40
15.0
 40
15.0
 40
15.0
 40
15.0
 10
280.83984375
 20
-400.5537109375
 30
0.0
 10
280.66357421875
 20
-400.5537109375
 30
0.0
 10
280.515625
 20
-400.4931640625
 30
0.0
 10
280.3955078125
 20
-400.3730468749999
 30
0.0
 10
280.275390625
 20
-400.25390625
 30
0.0
 10
280.2158203125
 20
-400.1054687499999
 30
0.0
 10
280.2158203125
 20
-399.9296875
 30
0.0
 10
280.2158203125
 20
-399.9296875
 30
0.0
 10
280.2158203125
 20
-391.8056640625
 30
0.0
 10
280.2158203125
 20
-391.8056640625
 30
0.0
 10
280.2158203125
 20
-391.62158203125
 30
0.0
 10
280.275390625
 20
-391.4716796875
 30
0.0
 10
280.3955078125
 20
-391.35546875
 30
0.0
 10
280.515625
 20
-391.23974609375
 30
0.0
 10
280.66357421875
 20
-391.181640625
 30
0.0
 10
280.83984375
 20
-391.181640625
 30
0.0
 10
280.83984375
 20
-391.181640625
 30
0.0
 10
283.01171875
 20
-391.181640625
 30
0.0
 10
283.01171875
 20
-391.181640625
 30
0.0
 10
283.69970703125
 20
-391.181640625
 30
0.0
 10
284.32568359375
 20
-391.2958984375
 30
0.0
 10
284.8896484375
 20
-391.52392578125
 30
0.0
 10
285.45361328125
 20
-391.751953125
 30
0.0
 10
285.943359375
 20
-392.07568359375
 30
0.0
 10
286.35986328125
 20
-392.49560546875
 30
0.0
 10
286.775390625
 20
-392.91552734375
 30
0.0
 10
287.095703125
 20
-393.40966796875
 30
0.0
 10
287.31982421875
 20
-393.9775390625
 30
0.0
 10
287.54345703125
 20
-394.5458984375
 30
0.0
 10
287.65576171875
 20
-395.173828125
 30
0.0
 10
287.65576171875
 20
-395.86181640625
 30
0.0
 10
287.65576171875
 20
-396.5498046875
 30
0.0
 10
287.54345703125
 20
-397.1796875
 30
0.0
 10
287.31982421875
 20
-397.751953125
 30
0.0
 10
287.095703125
 20
-398.3232421875
 30
0.0
 10
286.775390625
 20
-398.8193359375
 30
0.0
 10
286.35986328125
 20
-399.2392578125
 30
0.0
 10
285.943359375
 20
-399.6591796875
 30
0.0
 10
285.45361328125
 20
-399.9833984375
 30
0.0
 10
284.8896484375
 20
-400.2119140625
 30
0.0
 10
284.32568359375
 20
-400.439453125
 30
0.0
 10
283.69970703125
 20
-400.5537109375
 30
0.0
 10
283.01171875
 20
-400.5537109375
 30
0.0
 10
283.01171875
 20
-400.5537109375
 30
0.0
 10
280.83984375
 20
-400.5537109375
 30
0.0
 10
280.83984375
 20
-400.5537109375
 30
0.0
  0
HATCH
  5
83
330
79
100
AcDbEntity
  8
Layer 1
 62
   250
420
  2301728
440
 33554687
100
AcDbHatch
 10
0.0
 20
0.0
 30
0.0
210
0.0
220
0.0
230
1.0
  2
SOLID
 70
     1
 71
     1
 91
        2
 92
        1
 93
        1
 72
     4
 94
        3
 73
     0
 74
     0
 95
       32
 96
       28
 40
0.0
 40
0.0
 40
0.0
 40
0.0
 40
1.0
 40
1.0
 40
1.0
 40
2.0
 40
2.0
 40
2.0
 40
3.0
 40
3.0
 40
3.0
 40
4.0
 40
4.0
 40
4.0
 40
5.0
 40
5.0
 40
5.0
 40
6.0
 40
6.0
 40
6.0
 40
7.0
 40
7.0
 40
7.0
 40
8.0
 40
8.0
 40
8.0
 40
9.0
 40
9.0
 40
9.0
 40
9.0
 10
281.4638671875
 20
-399.44921875
 10
281.4638671875
 20
-399.44921875
 10
283.01171875
 20
-399.44921875
 10
283.01171875
 20
-399.44921875
 10
283.68359375
 20
-399.44921875
 10
284.27783203125
 20
-399.2958984375
 10
284.79345703125
 20
-398.9873046875
 10
285.3095703125
 20
-398.6796875
 10
285.71533203125
 20
-398.255859375
 10
286.01171875
 20
-397.7158203125
 10
286.3076171875
 20
-397.17578125
 10
286.45556640625
 20
-396.5576171875
 10
286.45556640625
 20
-395.86181640625
 10
286.45556640625
 20
-395.15771484375
 10
286.3076171875
 20
-394.53759765625
 10
286.01171875
 20
-394.001953125
 10
285.71533203125
 20
-393.4658203125
 10
285.3095703125
 20
-393.0458984375
 10
284.79345703125
 20
-392.74169921875
 10
284.27783203125
 20
-392.43798828125
 10
283.68359375
 20
-392.28564453125
 10
283.01171875
 20
-392.28564453125
 10
283.01171875
 20
-392.28564453125
 10
281.4638671875
 20
-392.28564453125
 10
281.4638671875
 20
-392.28564453125
 10
281.4638671875
 20
-392.28564453125
 10
281.4638671875
 20
-399.44921875
 10
281.4638671875
 20
-399.44921875
 97
        0
 97
        1
330
81
 92
        1
 93
        1
 72
     4
 94
        3
 73
     0
 74
     0
 95
       50
 96
       46
 40
0.0
 40
0.0
 40
0.0
 40
0.0
 40
1.0
 40
1.0
 40
1.0
 40
2.0
 40
2.0
 40
2.0
 40
3.0
 40
3.0
 40
3.0
 40
4.0
 40
4.0
 40
4.0
 40
5.0
 40
5.0
 40
5.0
 40
6.0
 40
6.0
 40
6.0
 40
7.0
 40
7.0
 40
7.0
 40
8.0
 40
8.0
 40
8.0
 40
9.0
 40
9.0
 40
9.0
 40
10.0
 40
10.0
 40
10.0
 40
11.0
 40
11.0
 40
11.0
 40
12.0
 40
12.0
 40
12.0
 40
13.0
 40
13.0
 40
13.0
 40
14.0
 40
14.0
 40
14.0
 40
15.0
 40
15.0
 40
15.0
 40
15.0
 10
280.83984375
 20
-400.5537109375
 10
280.66357421875
 20
-400.5537109375
 10
280.515625
 20
-400.4931640625
 10
280.3955078125
 20
-400.3730468749999
 10
280.275390625
 20
-400.25390625
 10
280.2158203125
 20
-400.1054687499999
 10
280.2158203125
 20
-399.9296875
 10
280.2158203125
 20
-399.9296875
 10
280.2158203125
 20
-391.8056640625
 10
280.2158203125
 20
-391.8056640625
 10
280.2158203125
 20
-391.62158203125
 10
280.275390625
 20
-391.4716796875
 10
280.3955078125
 20
-391.35546875
 10
280.515625
 20
-391.23974609375
 10
280.66357421875
 20
-391.181640625
 10
280.83984375
 20
-391.181640625
 10
280.83984375
 20
-391.181640625
 10
283.01171875
 20
-391.181640625
 10
283.01171875
 20
-391.181640625
 10
283.69970703125
 20
-391.181640625
 10
284.32568359375
 20
-391.2958984375
 10
284.8896484375
 20
-391.52392578125
 10
285.45361328125
 20
-391.751953125
 10
285.943359375
 20
-392.07568359375
 10
286.35986328125
 20
-392.49560546875
 10
286.775390625
 20
-392.91552734375
 10
287.095703125
 20
-393.40966796875
 10
287.31982421875
 20
-393.9775390625
 10
287.54345703125
 20
-394.5458984375
 10
287.65576171875
 20
-395.173828125
 10
287.65576171875
 20
-395.86181640625
 10
287.65576171875
 20
-396.5498046875
 10
287.54345703125
 20
-397.1796875
 10
287.31982421875
 20
-397.751953125
 10
287.095703125
 20
-398.3232421875
 10
286.775390625
 20
-398.8193359375
 10
286.35986328125
 20
-399.2392578125
 10
285.943359375
 20
-399.6591796875
 10
285.45361328125
 20
-399.9833984375
 10
284.8896484375
 20
-400.2119140625
 10
284.32568359375
 20
-400.439453125
 10
283.69970703125
 20
-400.5537109375
 10
283.01171875
 20
-400.5537109375
 10
283.01171875
 20
-400.5537109375
 10
280.83984375
 20
-400.5537109375
 10
280.83984375
 20
-400.5537109375
 97
        0
 97
        1
330
82
 75
     2
 76
     1
 98
        1
 10
0.0
 20
0.0
450
        0
451
        0
460
0.0
461
0.0
452
        0
462
0.0
453
        0
470

  0
SPLINE
  5
84
330
79
100
AcDbEntity
  8
Layer 1
100
AcDbSpline
210
0.0
220
0.0
230
1.0
 70
     9
 71
     3
 72
    35
 73
    31
 74
     0
 42
0.0000000001
 43
0.0000000001
 40
0.0
 40
0.0
 40
0.0
 40
0.0
 40
1.0
 40
1.0
 40
1.0
 40
2.0
 40
2.0
 40
2.0
 40
3.0
 40
3.0
 40
3.0
 40
4.0
 40
4.0
 40
4.0
 40
5.0
 40
5.0
 40
5.0
 40
6.0
 40
6.0
 40
6.0
 40
7.0
 40
7.0
 40
7.0
 40
8.0
 40
8.0
 40
8.0
 40
9.0
 40
9.0
 40
9.0
 40
10.0
 40
10.0
 40
10.0
 40
10.0
 10
290.23583984375
 20
-400.5537109375
 30
0.0
 10
290.0595703125
 20
-400.5537109375
 30
0.0
 10
289.91162109375
 20
-400.4931640625
 30
0.0
 10
289.79150390625
 20
-400.3730468749999
 30
0.0
 10
289.67138671875
 20
-400.25390625
 30
0.0
 10
289.61181640625
 20
-400.1054687499999
 30
0.0
 10
289.61181640625
 20
-399.9296875
 30
0.0
 10
289.61181640625
 20
-399.9296875
 30
0.0
 10
289.61181640625
 20
-391.8056640625
 30
0.0
 10
289.61181640625
 20
-391.8056640625
 30
0.0
 10
289.61181640625
 20
-391.62158203125
 30
0.0
 10
289.67138671875
 20
-391.4716796875
 30
0.0
 10
289.79150390625
 20
-391.35546875
 30
0.0
 10
289.91162109375
 20
-391.23974609375
 30
0.0
 10
290.0595703125
 20
-391.181640625
 30
0.0
 10
290.23583984375
 20
-391.181640625
 30
0.0
 10
290.41943359375
 20
-391.181640625
 30
0.0
 10
290.5693359375
 20
-391.23974609375
 30
0.0
 10
290.685546875
 20
-391.35546875
 30
0.0
 10
290.80126953125
 20
-391.4716796875
 30
0.0
 10
290.85986328125
 20
-391.62158203125
 30
0.0
 10
290.85986328125
 20
-391.8056640625
 30
0.0
 10
290.85986328125
 20
-391.8056640625
 30
0.0
 10
290.85986328125
 20
-399.9296875
 30
0.0
 10
290.85986328125
 20
-399.9296875
 30
0.0
 10
290.85986328125
 20
-400.1054687499999
 30
0.0
 10
290.80126953125
 20
-400.25390625
 30
0.0
 10
290.685546875
 20
-400.3730468749999
 30
0.0
 10
290.5693359375
 20
-400.4931640625
 30
0.0
 10
290.41943359375
 20
-400.5537109375
 30
0.0
 10
290.23583984375
 20
-400.5537109375
 30
0.0
  0
HATCH
  5
85
330
79
100
AcDbEntity
  8
Layer 1
 62
   250
420
  2301728
440
 33554687
100
AcDbHatch
 10
0.0
 20
0.0
 30
0.0
210
0.0
220
0.0
230
1.0
  2
SOLID
 70
     1
 71
     1
 91
        1
 92
        1
 93
        1
 72
     4
 94
        3
 73
     0
 74
     0
 95
       35
 96
       31
 40
0.0
 40
0.0
 40
0.0
 40
0.0
 40
1.0
 40
1.0
 40
1.0
 40
2.0
 40
2.0
 40
2.0
 40
3.0
 40
3.0
 40
3.0
 40
4.0
 40
4.0
 40
4.0
 40
5.0
 40
5.0
 40
5.0
 40
6.0
 40
6.0
 40
6.0
 40
7.0
 40
7.0
 40
7.0
 40
8.0
 40
8.0
 40
8.0
 40
9.0
 40
9.0
 40
9.0
 40
10.0
 40
10.0
 40
10.0
 40
10.0
 10
290.23583984375
 20
-400.5537109375
 10
290.0595703125
 20
-400.5537109375
 10
289.91162109375
 20
-400.4931640625
 10
289.79150390625
 20
-400.3730468749999
 10
289.67138671875
 20
-400.25390625
 10
289.61181640625
 20
-400.1054687499999
 10
289.61181640625
 20
-399.9296875
 10
289.61181640625
 20
-399.9296875
 10
289.61181640625
 20
-391.8056640625
 10
289.61181640625
 20
-391.8056640625
 10
289.61181640625
 20
-391.62158203125
 10
289.67138671875
 20
-391.4716796875
 10
289.79150390625
 20
-391.35546875
 10
289.91162109375
 20
-391.23974609375
 10
290.0595703125
 20
-391.181640625
 10
290.23583984375
 20
-391.181640625
 10
290.41943359375
 20
-391.181640625
 10
290.5693359375
 20
-391.23974609375
 10
290.685546875
 20
-391.35546875
 10
290.80126953125
 20
-391.4716796875
 10
290.85986328125
 20
-391.62158203125
 10
290.85986328125
 20
-391.8056640625
 10
290.85986328125
 20
-391.8056640625
 10
290.85986328125
 20
-399.9296875
 10
290.85986328125
 20
-399.9296875
 10
290.85986328125
 20
-400.1054687499999
 10
290.80126953125
 20
-400.25390625
 10
290.685546875
 20
-400.3730468749999
 10
290.5693359375
 20
-400.4931640625
 10
290.41943359375
 20
-400.5537109375
 10
290.23583984375
 20
-400.5537109375
 97
        0
 97
        1
330
84
 75
     2
 76
     1
 98
        1
 10
0.0
 20
0.0
450
        0
451
        0
460
0.0
461
0.0
452
        0
462
0.0
453
        0
470

  0
SPLINE
  5
86
330
79
100
AcDbEntity
  8
Layer 1
100
AcDbSpline
210
0.0
220
0.0
230
1.0
 70
     9
 71
     3
 72
   128
 73
   124
 74
     0
 42
0.0000000001
 43
0.0000000001
 40
0.0
 40
0.0
 40
0.0
 40
0.0
 40
1.0
 40
1.0
 40
1.0
 40
2.0
 40
2.0
 40
2.0
 40
3.0
 40
3.0
 40
3.0
 40
4.0
 40
4.0
 40
4.0
 40
5.0
 40
5.0
 40
5.0
 40
6.0
 40
6.0
 40
6.0
 40
7.0
 40
7.0
 40
7.0
 40
8.0
 40
8.0
 40
8.0
 40
9.0
 40
9.0
 40
9.0
 40
10.0
 40
10.0
 40
10.0
 40
11.0
 40
11.0
 40
11.0
 40
12.0
 40
12.0
 40
12.0
 40
13.0
 40
13.0
 40
13.0
 40
14.0
 40
14.0
 40
14.0
 40
15.0
 40
15.0
 40
15.0
 40
16.0
 40
16.0
 40
16.0
 40
17.0
 40
17.0
 40
17.0
 40
18.0
 40
18.0
 40
18.0
 40
19.0
 40
19.0
 40
19.0
 40
20.0
 40
20.0
 40
20.0
 40
21.0
 40
21.0
 40
21.0
 40
22.0
 40
22.0
 40
22.0
 40
23.0
 40
23.0
 40
23.0
 40
24.0
 40
24.0
 40
24.0
 40
25.0
 40
25.0
 40
25.0
 40
26.0
 40
26.0
 40
26.0
 40
27.0
 40
27.0
 40
27.0
 40
28.0
 40
28.0
 40
28.0
 40
29.0
 40
29.0
 40
29.0
 40
30.0
 40
30.0
 40
30.0
 40
31.0
 40
31.0
 40
31.0
 40
32.0
 40
32.0
 40
32.0
 40
33.0
 40
33.0
 40
33.0
 40
34.0
 40
34.0
 40
34.0
 40
35.0
 40
35.0
 40
35.0
 40
36.0
 40
36.0
 40
36.0
 40
37.0
 40
37.0
 40
37.0
 40
38.0
 40
38.0
 40
38.0
 40
39.0
 40
39.0
 40
39.0
 40
40.0
 40
40.0
 40
40.0
 40
41.0
 40
41.0
 40
41.0
 40
41.0
 10
296.2353515625
 20
-400.6738281249999
 30
0.0
 10
295.7236328125
 20
-400.6738281249999
 30
0.0
 10
295.2353515625
 20
-400.5937499999999
 30
0.0
 10
294.771484375
 20
-400.43359375
 30
0.0
 10
294.3076171875
 20
-400.2734375
 30
0.0
 10
293.9033203125
 20
-400.0498046875
 30
0.0
 10
293.5595703125
 20
-399.76171875
 30
0.0
 10
293.21533203125
 20
-399.4736328125
 30
0.0
 10
292.96337890625
 20
-399.1416015625
 30
0.0
 10
292.8037109375
 20
-398.765625
 30
0.0
 10
292.7236328125
 20
-398.59765625
 30
0.0
 10
292.7255859375
 20
-398.44140625
 30
0.0
 10
292.8095703125
 20
-398.2978515625
 30
0.0
 10
292.8935546875
 20
-398.1533203125
 30
0.0
 10
293.03564453125
 20
-398.0615234375
 30
0.0
 10
293.2353515625
 20
-398.021484375
 30
0.0
 10
293.37939453125
 20
-397.9892578125
 30
0.0
 10
293.521484375
 20
-398.01171875
 30
0.0
 10
293.66162109375
 20
-398.087890625
 30
0.0
 10
293.80126953125
 20
-398.1640625
 30
0.0
 10
293.90771484375
 20
-398.27734375
 30
0.0
 10
293.9794921875
 20
-398.4296875
 30
0.0
 10
294.07568359375
 20
-398.6298828125
 30
0.0
 10
294.2333984375
 20
-398.8134765625
 30
0.0
 10
294.45361328125
 20
-398.9814453125
 30
0.0
 10
294.67333984375
 20
-399.1494140625
 30
0.0
 10
294.939453125
 20
-399.28515625
 30
0.0
 10
295.25146484375
 20
-399.3896484375
 30
0.0
 10
295.5634765625
 20
-399.4931640625
 30
0.0
 10
295.8916015625
 20
-399.5458984375
 30
0.0
 10
296.2353515625
 20
-399.5458984375
 30
0.0
 10
296.61962890625
 20
-399.5458984375
 30
0.0
 10
296.9736328125
 20
-399.4853515625
 30
0.0
 10
297.29736328125
 20
-399.365234375
 30
0.0
 10
297.62158203125
 20
-399.2451171875
 30
0.0
 10
297.88330078125
 20
-399.0712890625
 30
0.0
 10
298.08349609375
 20
-398.84375
 30
0.0
 10
298.283203125
 20
-398.615234375
 30
0.0
 10
298.3837890625
 20
-398.3330078125
 30
0.0
 10
298.3837890625
 20
-397.9970703125
 30
0.0
 10
298.3837890625
 20
-397.5732421875
 30
0.0
 10
298.21728515625
 20
-397.193359375
 30
0.0
 10
297.8857421875
 20
-396.85791015625
 30
0.0
 10
297.5537109375
 20
-396.521484375
 30
0.0
 10
297.00732421875
 20
-396.31396484375
 30
0.0
 10
296.24755859375
 20
-396.23388671875
 30
0.0
 10
295.25537109375
 20
-396.1376953125
 30
0.0
 10
294.4755859375
 20
-395.845703125
 30
0.0
 10
293.90771484375
 20
-395.35791015625
 30
0.0
 10
293.33935546875
 20
-394.86962890625
 30
0.0
 10
293.0556640625
 20
-394.265625
 30
0.0
 10
293.0556640625
 20
-393.5458984375
 30
0.0
 10
293.0556640625
 20
-393.017578125
 30
0.0
 10
293.20361328125
 20
-392.56982421875
 30
0.0
 10
293.49951171875
 20
-392.20166015625
 30
0.0
 10
293.79541015625
 20
-391.833984375
 30
0.0
 10
294.197265625
 20
-391.5537109375
 30
0.0
 10
294.70556640625
 20
-391.36181640625
 30
0.0
 10
295.21337890625
 20
-391.169921875
 30
0.0
 10
295.77978515625
 20
-391.07373046875
 30
0.0
 10
296.40380859375
 20
-391.07373046875
 30
0.0
 10
296.8916015625
 20
-391.07373046875
 30
0.0
 10
297.3173828125
 20
-391.1416015625
 30
0.0
 10
297.681640625
 20
-391.27783203125
 30
0.0
 10
298.04541015625
 20
-391.4140625
 30
0.0
 10
298.36328125
 20
-391.6015625
 30
0.0
 10
298.6357421875
 20
-391.841796875
 30
0.0
 10
298.9072265625
 20
-392.08154296875
 30
0.0
 10
299.1435546875
 20
-392.36572265625
 30
0.0
 10
299.34375
 20
-392.69384765625
 30
0.0
 10
299.45556640625
 20
-392.86962890625
 30
0.0
 10
299.50146484375
 20
-393.03564453125
 30
0.0
 10
299.4814453125
 20
-393.19189453125
 30
0.0
 10
299.46142578125
 20
-393.34765625
 30
0.0
 10
299.38330078125
 20
-393.4697265625
 30
0.0
 10
299.24755859375
 20
-393.5576171875
 30
0.0
 10
299.095703125
 20
-393.65380859375
 30
0.0
 10
298.931640625
 20
-393.673828125
 30
0.0
 10
298.75537109375
 20
-393.61767578125
 30
0.0
 10
298.57958984375
 20
-393.56201171875
 30
0.0
 10
298.447265625
 20
-393.4580078125
 30
0.0
 10
298.359375
 20
-393.3056640625
 30
0.0
 10
298.2314453125
 20
-393.07373046875
 30
0.0
 10
298.07568359375
 20
-392.8779296875
 30
0.0
 10
297.8916015625
 20
-392.7177734375
 30
0.0
 10
297.70751953125
 20
-392.5576171875
 30
0.0
 10
297.4912109375
 20
-392.431640625
 30
0.0
 10
297.24365234375
 20
-392.33984375
 30
0.0
 10
296.99560546875
 20
-392.248046875
 30
0.0
 10
296.70361328125
 20
-392.20166015625
 30
0.0
 10
296.36767578125
 20
-392.20166015625
 30
0.0
 10
295.775390625
 20
-392.19384765625
 30
0.0
 10
295.279296875
 20
-392.3037109375
 30
0.0
 10
294.87939453125
 20
-392.53173828125
 30
0.0
 10
294.4794921875
 20
-392.759765625
 30
0.0
 10
294.27978515625
 20
-393.10986328125
 30
0.0
 10
294.27978515625
 20
-393.58154296875
 30
0.0
 10
294.27978515625
 20
-393.82177734375
 30
0.0
 10
294.34130859375
 20
-394.0517578125
 30
0.0
 10
294.46533203125
 20
-394.271484375
 30
0.0
 10
294.58935546875
 20
-394.49169921875
 30
0.0
 10
294.8173828125
 20
-394.681640625
 30
0.0
 10
295.1494140625
 20
-394.841796875
 30
0.0
 10
295.4814453125
 20
-395.001953125
 30
0.0
 10
295.95947265625
 20
-395.11376953125
 30
0.0
 10
296.58349609375
 20
-395.177734375
 30
0.0
 10
297.53564453125
 20
-395.27392578125
 30
0.0
 10
298.27734375
 20
-395.56396484375
 30
0.0
 10
298.8095703125
 20
-396.0478515625
 30
0.0
 10
299.34130859375
 20
-396.53173828125
 30
0.0
 10
299.607421875
 20
-397.169921875
 30
0.0
 10
299.607421875
 20
-397.9619140625
 30
0.0
 10
299.607421875
 20
-398.4169921875
 30
0.0
 10
299.513671875
 20
-398.8134765625
 30
0.0
 10
299.32568359375
 20
-399.1494140625
 30
0.0
 10
299.1376953125
 20
-399.4853515625
 30
0.0
 10
298.8857421875
 20
-399.767578125
 30
0.0
 10
298.5693359375
 20
-399.9951171875
 30
0.0
 10
298.25341796875
 20
-400.2236328124999
 30
0.0
 10
297.8935546875
 20
-400.3935546874999
 30
0.0
 10
297.48974609375
 20
-400.505859375
 30
0.0
 10
297.08544921875
 20
-400.6171874999999
 30
0.0
 10
296.66748046875
 20
-400.6738281249999
 30
0.0
 10
296.2353515625
 20
-400.6738281249999
 30
0.0
  0
HATCH
  5
87
330
79
100
AcDbEntity
  8
Layer 1
 62
   250
420
  2301728
440
 33554687
100
AcDbHatch
 10
0.0
 20
0.0
 30
0.0
210
0.0
220
0.0
230
1.0
  2
SOLID
 70
     1
 71
     1
 91
        1
 92
        1
 93
        1
 72
     4
 94
        3
 73
     0
 74
     0
 95
      128
 96
      124
 40
0.0
 40
0.0
 40
0.0
 40
0.0
 40
1.0
 40
1.0
 40
1.0
 40
2.0
 40
2.0
 40
2.0
 40
3.0
 40
3.0
 40
3.0
 40
4.0
 40
4.0
 40
4.0
 40
5.0
 40
5.0
 40
5.0
 40
6.0
 40
6.0
 40
6.0
 40
7.0
 40
7.0
 40
7.0
 40
8.0
 40
8.0
 40
8.0
 40
9.0
 40
9.0
 40
9.0
 40
10.0
 40
10.0
 40
10.0
 40
11.0
 40
11.0
 40
11.0
 40
12.0
 40
12.0
 40
12.0
 40
13.0
 40
13.0
 40
13.0
 40
14.0
 40
14.0
 40
14.0
 40
15.0
 40
15.0
 40
15.0
 40
16.0
 40
16.0
 40
16.0
 40
17.0
 40
17.0
 40
17.0
 40
18.0
 40
18.0
 40
18.0
 40
19.0
 40
19.0
 40
19.0
 40
20.0
 40
20.0
 40
20.0
 40
21.0
 40
21.0
 40
21.0
 40
22.0
 40
22.0
 40
22.0
 40
23.0
 40
23.0
 40
23.0
 40
24.0
 40
24.0
 40
24.0
 40
25.0
 40
25.0
 40
25.0
 40
26.0
 40
26.0
 40
26.0
 40
27.0
 40
27.0
 40
27.0
 40
28.0
 40
28.0
 40
28.0
 40
29.0
 40
29.0
 40
29.0
 40
30.0
 40
30.0
 40
30.0
 40
31.0
 40
31.0
 40
31.0
 40
32.0
 40
32.0
 40
32.0
 40
33.0
 40
33.0
 40
33.0
 40
34.0
 40
34.0
 40
34.0
 40
35.0
 40
35.0
 40
35.0
 40
36.0
 40
36.0
 40
36.0
 40
37.0
 40
37.0
 40
37.0
 40
38.0
 40
38.0
 40
38.0
 40
39.0
 40
39.0
 40
39.0
 40
40.0
 40
40.0
 40
40.0
 40
41.0
 40
41.0
 40
41.0
 40
41.0
 10
296.2353515625
 20
-400.6738281249999
 10
295.7236328125
 20
-400.6738281249999
 10
295.2353515625
 20
-400.5937499999999
 10
294.771484375
 20
-400.43359375
 10
294.3076171875
 20
-400.2734375
 10
293.9033203125
 20
-400.0498046875
 10
293.5595703125
 20
-399.76171875
 10
293.21533203125
 20
-399.4736328125
 10
292.96337890625
 20
-399.1416015625
 10
292.8037109375
 20
-398.765625
 10
292.7236328125
 20
-398.59765625
 10
292.7255859375
 20
-398.44140625
 10
292.8095703125
 20
-398.2978515625
 10
292.8935546875
 20
-398.1533203125
 10
293.03564453125
 20
-398.0615234375
 10
293.2353515625
 20
-398.021484375
 10
293.37939453125
 20
-397.9892578125
 10
293.521484375
 20
-398.01171875
 10
293.66162109375
 20
-398.087890625
 10
293.80126953125
 20
-398.1640625
 10
293.90771484375
 20
-398.27734375
 10
293.9794921875
 20
-398.4296875
 10
294.07568359375
 20
-398.6298828125
 10
294.2333984375
 20
-398.8134765625
 10
294.45361328125
 20
-398.9814453125
 10
294.67333984375
 20
-399.1494140625
 10
294.939453125
 20
-399.28515625
 10
295.25146484375
 20
-399.3896484375
 10
295.5634765625
 20
-399.4931640625
 10
295.8916015625
 20
-399.5458984375
 10
296.2353515625
 20
-399.5458984375
 10
296.61962890625
 20
-399.5458984375
 10
296.9736328125
 20
-399.4853515625
 10
297.29736328125
 20
-399.365234375
 10
297.62158203125
 20
-399.2451171875
 10
297.88330078125
 20
-399.0712890625
 10
298.08349609375
 20
-398.84375
 10
298.283203125
 20
-398.615234375
 10
298.3837890625
 20
-398.3330078125
 10
298.3837890625
 20
-397.9970703125
 10
298.3837890625
 20
-397.5732421875
 10
298.21728515625
 20
-397.193359375
 10
297.8857421875
 20
-396.85791015625
 10
297.5537109375
 20
-396.521484375
 10
297.00732421875
 20
-396.31396484375
 10
296.24755859375
 20
-396.23388671875
 10
295.25537109375
 20
-396.1376953125
 10
294.4755859375
 20
-395.845703125
 10
293.90771484375
 20
-395.35791015625
 10
293.33935546875
 20
-394.86962890625
 10
293.0556640625
 20
-394.265625
 10
293.0556640625
 20
-393.5458984375
 10
293.0556640625
 20
-393.017578125
 10
293.20361328125
 20
-392.56982421875
 10
293.49951171875
 20
-392.20166015625
 10
293.79541015625
 20
-391.833984375
 10
294.197265625
 20
-391.5537109375
 10
294.70556640625
 20
-391.36181640625
 10
295.21337890625
 20
-391.169921875
 10
295.77978515625
 20
-391.07373046875
 10
296.40380859375
 20
-391.07373046875
 10
296.8916015625
 20
-391.07373046875
 10
297.3173828125
 20
-391.1416015625
 10
297.681640625
 20
-391.27783203125
 10
298.04541015625
 20
-391.4140625
 10
298.36328125
 20
-391.6015625
 10
298.6357421875
 20
-391.841796875
 10
298.9072265625
 20
-392.08154296875
 10
299.1435546875
 20
-392.36572265625
 10
299.34375
 20
-392.69384765625
 10
299.45556640625
 20
-392.86962890625
 10
299.50146484375
 20
-393.03564453125
 10
299.4814453125
 20
-393.19189453125
 10
299.46142578125
 20
-393.34765625
 10
299.38330078125
 20
-393.4697265625
 10
299.24755859375
 20
-393.5576171875
 10
299.095703125
 20
-393.65380859375
 10
298.931640625
 20
-393.673828125
 10
298.75537109375
 20
-393.61767578125
 10
298.57958984375
 20
-393.56201171875
 10
298.447265625
 20
-393.4580078125
 10
298.359375
 20
-393.3056640625
 10
298.2314453125
 20
-393.07373046875
 10
298.07568359375
 20
-392.8779296875
 10
297.8916015625
 20
-392.7177734375
 10
297.70751953125
 20
-392.5576171875
 10
297.4912109375
 20
-392.431640625
 10
297.24365234375
 20
-392.33984375
 10
296.99560546875
 20
-392.248046875
 10
296.70361328125
 20
-392.20166015625
 10
296.36767578125
 20
-392.20166015625
 10
295.775390625
 20
-392.19384765625
 10
295.279296875
 20
-392.3037109375
 10
294.87939453125
 20
-392.53173828125
 10
294.4794921875
 20
-392.759765625
 10
294.27978515625
 20
-393.10986328125
 10
294.27978515625
 20
-393.58154296875
 10
294.27978515625
 20
-393.82177734375
 10
294.34130859375
 20
-394.0517578125
 10
294.46533203125
 20
-394.271484375
 10
294.58935546875
 20
-394.49169921875
 10
294.8173828125
 20
-394.681640625
 10
295.1494140625
 20
-394.841796875
 10
295.4814453125
 20
-395.001953125
 10
295.95947265625
 20
-395.11376953125
 10
296.58349609375
 20
-395.177734375
 10
297.53564453125
 20
-395.27392578125
 10
298.27734375
 20
-395.56396484375
 10
298.8095703125
 20
-396.0478515625
 10
299.34130859375
 20
-396.53173828125
 10
299.607421875
 20
-397.169921875
 10
299.607421875
 20
-397.9619140625
 10
299.607421875
 20
-398.4169921875
 10
299.513671875
 20
-398.8134765625
 10
299.32568359375
 20
-399.1494140625
 10
299.1376953125
 20
-399.4853515625
 10
298.8857421875
 20
-399.767578125
 10
298.5693359375
 20
-399.9951171875
 10
298.25341796875
 20
-400.2236328124999
 10
297.8935546875
 20
-400.3935546874999
 10
297.48974609375
 20
-400.505859375
 10
297.08544921875
 20
-400.6171874999999
 10
296.66748046875
 20
-400.6738281249999
 10
296.2353515625
 20
-400.6738281249999
 97
        0
 97
        1
330
86
 75
     2
 76
     1
 98
        1
 10
0.0
 20
0.0
450
        0
451
        0
460
0.0
461
0.0
452
        0
462
0.0
453
        0
470

  0
SPLINE
  5
88
330
79
100
AcDbEntity
  8
Layer 1
100
AcDbSpline
210
0.0
220
0.0
230
1.0
 70
    11
 71
     3
 72
    32
 73
    28
 74
     0
 42
0.0000000001
 43
0.0000000001
 40
0.0
 40
0.0
 40
0.0
 40
0.0
 40
1.0
 40
1.0
 40
1.0
 40
2.0
 40
2.0
 40
2.0
 40
3.0
 40
3.0
 40
3.0
 40
4.0
 40
4.0
 40
4.0
 40
5.0
 40
5.0
 40
5.0
 40
6.0
 40
6.0
 40
6.0
 40
7.0
 40
7.0
 40
7.0
 40
8.0
 40
8.0
 40
8.0
 40
9.0
 40
9.0
 40
9.0
 40
9.0
 10
302.763671875
 20
-396.14990234375
 30
0.0
 10
302.763671875
 20
-396.14990234375
 30
0.0
 10
304.53955078125
 20
-396.14990234375
 30
0.0
 10
304.53955078125
 20
-396.14990234375
 30
0.0
 10
304.9072265625
 20
-396.14990234375
 30
0.0
 10
305.2314453125
 20
-396.06982421875
 30
0.0
 10
305.51123046875
 20
-395.90966796875
 30
0.0
 10
305.79150390625
 20
-395.75
 30
0.0
 10
306.01123046875
 20
-395.52978515625
 30
0.0
 10
306.17138671875
 20
-395.24951171875
 30
0.0
 10
306.33154296875
 20
-394.9697265625
 30
0.0
 10
306.41162109375
 20
-394.64990234375
 30
0.0
 10
306.41162109375
 20
-394.28955078125
 30
0.0
 10
306.41162109375
 20
-393.90576171875
 30
0.0
 10
306.33154296875
 20
-393.56787109375
 30
0.0
 10
306.17138671875
 20
-393.27587890625
 30
0.0
 10
306.01123046875
 20
-392.98388671875
 30
0.0
 10
305.79150390625
 20
-392.75390625
 30
0.0
 10
305.51123046875
 20
-392.5859375
 30
0.0
 10
305.2314453125
 20
-392.41748046875
 30
0.0
 10
304.9072265625
 20
-392.33349609375
 30
0.0
 10
304.53955078125
 20
-392.33349609375
 30
0.0
 10
304.53955078125
 20
-392.33349609375
 30
0.0
 10
302.763671875
 20
-392.33349609375
 30
0.0
 10
302.763671875
 20
-392.33349609375
 30
0.0
 10
302.763671875
 20
-392.33349609375
 30
0.0
 10
302.763671875
 20
-396.14990234375
 30
0.0
 10
302.763671875
 20
-396.14990234375
 30
0.0
  0
SPLINE
  5
89
330
79
100
AcDbEntity
  8
Layer 1
100
AcDbSpline
210
0.0
220
0.0
230
1.0
 70
     9
 71
     3
 72
    53
 73
    49
 74
     0
 42
0.0000000001
 43
0.0000000001
 40
0.0
 40
0.0
 40
0.0
 40
0.0
 40
1.0
 40
1.0
 40
1.0
 40
2.0
 40
2.0
 40
2.0
 40
3.0
 40
3.0
 40
3.0
 40
4.0
 40
4.0
 40
4.0
 40
5.0
 40
5.0
 40
5.0
 40
6.0
 40
6.0
 40
6.0
 40
7.0
 40
7.0
 40
7.0
 40
8.0
 40
8.0
 40
8.0
 40
9.0
 40
9.0
 40
9.0
 40
10.0
 40
10.0
 40
10.0
 40
11.0
 40
11.0
 40
11.0
 40
12.0
 40
12.0
 40
12.0
 40
13.0
 40
13.0
 40
13.0
 40
14.0
 40
14.0
 40
14.0
 40
15.0
 40
15.0
 40
15.0
 40
16.0
 40
16.0
 40
16.0
 40
16.0
 10
302.1396484375
 20
-400.5537109375
 30
0.0
 10
301.96337890625
 20
-400.5537109375
 30
0.0
 10
301.8154296875
 20
-400.4931640625
 30
0.0
 10
301.6953125
 20
-400.3730468749999
 30
0.0
 10
301.5751953125
 20
-400.25390625
 30
0.0
 10
301.515625
 20
-400.1054687499999
 30
0.0
 10
301.515625
 20
-399.9296875
 30
0.0
 10
301.515625
 20
-399.9296875
 30
0.0
 10
301.515625
 20
-391.8056640625
 30
0.0
 10
301.515625
 20
-391.8056640625
 30
0.0
 10
301.515625
 20
-391.62158203125
 30
0.0
 10
301.5751953125
 20
-391.4716796875
 30
0.0
 10
301.6953125
 20
-391.35546875
 30
0.0
 10
301.8154296875
 20
-391.23974609375
 30
0.0
 10
301.96337890625
 20
-391.181640625
 30
0.0
 10
302.1396484375
 20
-391.181640625
 30
0.0
 10
302.1396484375
 20
-391.181640625
 30
0.0
 10
304.53955078125
 20
-391.181640625
 30
0.0
 10
304.53955078125
 20
-391.181640625
 30
0.0
 10
305.1396484375
 20
-391.181640625
 30
0.0
 10
305.67138671875
 20
-391.3134765625
 30
0.0
 10
306.13525390625
 20
-391.57763671875
 30
0.0
 10
306.59912109375
 20
-391.841796875
 30
0.0
 10
306.96142578125
 20
-392.20751953125
 30
0.0
 10
307.220703125
 20
-392.67578125
 30
0.0
 10
307.4814453125
 20
-393.1435546875
 30
0.0
 10
307.611328125
 20
-393.681640625
 30
0.0
 10
307.611328125
 20
-394.28955078125
 30
0.0
 10
307.611328125
 20
-394.87353515625
 30
0.0
 10
307.4814453125
 20
-395.3935546875
 30
0.0
 10
307.220703125
 20
-395.849609375
 30
0.0
 10
306.96142578125
 20
-396.3056640625
 30
0.0
 10
306.59912109375
 20
-396.66162109375
 30
0.0
 10
306.13525390625
 20
-396.91748046875
 30
0.0
 10
305.67138671875
 20
-397.173828125
 30
0.0
 10
305.1396484375
 20
-397.3017578125
 30
0.0
 10
304.53955078125
 20
-397.3017578125
 30
0.0
 10
304.53955078125
 20
-397.3017578125
 30
0.0
 10
302.763671875
 20
-397.3017578125
 30
0.0
 10
302.763671875
 20
-397.3017578125
 30
0.0
 10
302.763671875
 20
-397.3017578125
 30
0.0
 10
302.763671875
 20
-399.9296875
 30
0.0
 10
302.763671875
 20
-399.9296875
 30
0.0
 10
302.763671875
 20
-400.1054687499999
 30
0.0
 10
302.705078125
 20
-400.25390625
 30
0.0
 10
302.58935546875
 20
-400.3730468749999
 30
0.0
 10
302.47314453125
 20
-400.4931640625
 30
0.0
 10
302.3232421875
 20
-400.5537109375
 30
0.0
 10
302.1396484375
 20
-400.5537109375
 30
0.0
  0
HATCH
  5
8A
330
79
100
AcDbEntity
  8
Layer 1
 62
   250
420
  2301728
440
 33554687
100
AcDbHatch
 10
0.0
 20
0.0
 30
0.0
210
0.0
220
0.0
230
1.0
  2
SOLID
 70
     1
 71
     1
 91
        2
 92
        1
 93
        1
 72
     4
 94
        3
 73
     0
 74
     0
 95
       32
 96
       28
 40
0.0
 40
0.0
 40
0.0
 40
0.0
 40
1.0
 40
1.0
 40
1.0
 40
2.0
 40
2.0
 40
2.0
 40
3.0
 40
3.0
 40
3.0
 40
4.0
 40
4.0
 40
4.0
 40
5.0
 40
5.0
 40
5.0
 40
6.0
 40
6.0
 40
6.0
 40
7.0
 40
7.0
 40
7.0
 40
8.0
 40
8.0
 40
8.0
 40
9.0
 40
9.0
 40
9.0
 40
9.0
 10
302.763671875
 20
-396.14990234375
 10
302.763671875
 20
-396.14990234375
 10
304.53955078125
 20
-396.14990234375
 10
304.53955078125
 20
-396.14990234375
 10
304.9072265625
 20
-396.14990234375
 10
305.2314453125
 20
-396.06982421875
 10
305.51123046875
 20
-395.90966796875
 10
305.79150390625
 20
-395.75
 10
306.01123046875
 20
-395.52978515625
 10
306.17138671875
 20
-395.24951171875
 10
306.33154296875
 20
-394.9697265625
 10
306.41162109375
 20
-394.64990234375
 10
306.41162109375
 20
-394.28955078125
 10
306.41162109375
 20
-393.90576171875
 10
306.33154296875
 20
-393.56787109375
 10
306.17138671875
 20
-393.27587890625
 10
306.01123046875
 20
-392.98388671875
 10
305.79150390625
 20
-392.75390625
 10
305.51123046875
 20
-392.5859375
 10
305.2314453125
 20
-392.41748046875
 10
304.9072265625
 20
-392.33349609375
 10
304.53955078125
 20
-392.33349609375
 10
304.53955078125
 20
-392.33349609375
 10
302.763671875
 20
-392.33349609375
 10
302.763671875
 20
-392.33349609375
 10
302.763671875
 20
-392.33349609375
 10
302.763671875
 20
-396.14990234375
 10
302.763671875
 20
-396.14990234375
 97
        0
 97
        1
330
88
 92
        1
 93
        1
 72
     4
 94
        3
 73
     0
 74
     0
 95
       53
 96
       49
 40
0.0
 40
0.0
 40
0.0
 40
0.0
 40
1.0
 40
1.0
 40
1.0
 40
2.0
 40
2.0
 40
2.0
 40
3.0
 40
3.0
 40
3.0
 40
4.0
 40
4.0
 40
4.0
 40
5.0
 40
5.0
 40
5.0
 40
6.0
 40
6.0
 40
6.0
 40
7.0
 40
7.0
 40
7.0
 40
8.0
 40
8.0
 40
8.0
 40
9.0
 40
9.0
 40
9.0
 40
10.0
 40
10.0
 40
10.0
 40
11.0
 40
11.0
 40
11.0
 40
12.0
 40
12.0
 40
12.0
 40
13.0
 40
13.0
 40
13.0
 40
14.0
 40
14.0
 40
14.0
 40
15.0
 40
15.0
 40
15.0
 40
16.0
 40
16.0
 40
16.0
 40
16.0
 10
302.1396484375
 20
-400.5537109375
 10
301.96337890625
 20
-400.5537109375
 10
301.8154296875
 20
-400.4931640625
 10
301.6953125
 20
-400.3730468749999
 10
301.5751953125
 20
-400.25390625
 10
301.515625
 20
-400.1054687499999
 10
301.515625
 20
-399.9296875
 10
301.515625
 20
-399.9296875
 10
301.515625
 20
-391.8056640625
 10
301.515625
 20
-391.8056640625
 10
301.515625
 20
-391.62158203125
 10
301.5751953125
 20
-391.4716796875
 10
301.6953125
 20
-391.35546875
 10
301.8154296875
 20
-391.23974609375
 10
301.96337890625
 20
-391.181640625
 10
302.1396484375
 20
-391.181640625
 10
302.1396484375
 20
-391.181640625
 10
304.53955078125
 20
-391.181640625
 10
304.53955078125
 20
-391.181640625
 10
305.1396484375
 20
-391.181640625
 10
305.67138671875
 20
-391.3134765625
 10
306.13525390625
 20
-391.57763671875
 10
306.59912109375
 20
-391.841796875
 10
306.96142578125
 20
-392.20751953125
 10
307.220703125
 20
-392.67578125
 10
307.4814453125
 20
-393.1435546875
 10
307.611328125
 20
-393.681640625
 10
307.611328125
 20
-394.28955078125
 10
307.611328125
 20
-394.87353515625
 10
307.4814453125
 20
-395.3935546875
 10
307.220703125
 20
-395.849609375
 10
306.96142578125
 20
-396.3056640625
 10
306.59912109375
 20
-396.66162109375
 10
306.13525390625
 20
-396.91748046875
 10
305.67138671875
 20
-397.173828125
 10
305.1396484375
 20
-397.3017578125
 10
304.53955078125
 20
-397.3017578125
 10
304.53955078125
 20
-397.3017578125
 10
302.763671875
 20
-397.3017578125
 10
302.763671875
 20
-397.3017578125
 10
302.763671875
 20
-397.3017578125
 10
302.763671875
 20
-399.9296875
 10
302.763671875
 20
-399.9296875
 10
302.763671875
 20
-400.1054687499999
 10
302.705078125
 20
-400.25390625
 10
302.58935546875
 20
-400.3730468749999
 10
302.47314453125
 20
-400.4931640625
 10
302.3232421875
 20
-400.5537109375
 10
302.1396484375
 20
-400.5537109375
 97
        0
 97
        1
330
89
 75
     2
 76
     1
 98
        1
 10
0.0
 20
0.0
450
        0
451
        0
460
0.0
461
0.0
452
        0
462
0.0
453
        0
470

  0
SPLINE
  5
8B
330
79
100
AcDbEntity
  8
Layer 1
100
AcDbSpline
210
0.0
220
0.0
230
1.0
 70
     9
 71
     3
 72
    80
 73
    76
 74
     0
 42
0.0000000001
 43
0.0000000001
 40
0.0
 40
0.0
 40
0.0
 40
0.0
 40
1.0
 40
1.0
 40
1.0
 40
2.0
 40
2.0
 40
2.0
 40
3.0
 40
3.0
 40
3.0
 40
4.0
 40
4.0
 40
4.0
 40
5.0
 40
5.0
 40
5.0
 40
6.0
 40
6.0
 40
6.0
 40
7.0
 40
7.0
 40
7.0
 40
8.0
 40
8.0
 40
8.0
 40
9.0
 40
9.0
 40
9.0
 40
10.0
 40
10.0
 40
10.0
 40
11.0
 40
11.0
 40
11.0
 40
12.0
 40
12.0
 40
12.0
 40
13.0
 40
13.0
 40
13.0
 40
14.0
 40
14.0
 40
14.0
 40
15.0
 40
15.0
 40
15.0
 40
16.0
 40
16.0
 40
16.0
 40
17.0
 40
17.0
 40
17.0
 40
18.0
 40
18.0
 40
18.0
 40
19.0
 40
19.0
 40
19.0
 40
20.0
 40
20.0
 40
20.0
 40
21.0
 40
21.0
 40
21.0
 40
22.0
 40
22.0
 40
22.0
 40
23.0
 40
23.0
 40
23.0
 40
24.0
 40
24.0
 40
24.0
 40
25.0
 40
25.0
 40
25.0
 40
25.0
 10
309.615234375
 20
-400.5537109375
 30
0.0
 10
309.4384765625
 20
-400.5537109375
 30
0.0
 10
309.291015625
 20
-400.4931640625
 30
0.0
 10
309.1708984375
 20
-400.3730468749999
 30
0.0
 10
309.05078125
 20
-400.25390625
 30
0.0
 10
308.9912109375
 20
-400.1054687499999
 30
0.0
 10
308.9912109375
 20
-399.9296875
 30
0.0
 10
308.9912109375
 20
-399.9296875
 30
0.0
 10
308.9912109375
 20
-391.8056640625
 30
0.0
 10
308.9912109375
 20
-391.8056640625
 30
0.0
 10
308.9912109375
 20
-391.62158203125
 30
0.0
 10
309.05078125
 20
-391.4716796875
 30
0.0
 10
309.1708984375
 20
-391.35546875
 30
0.0
 10
309.291015625
 20
-391.23974609375
 30
0.0
 10
309.4384765625
 20
-391.181640625
 30
0.0
 10
309.615234375
 20
-391.181640625
 30
0.0
 10
309.615234375
 20
-391.181640625
 30
0.0
 10
315.0390625
 20
-391.181640625
 30
0.0
 10
315.0390625
 20
-391.181640625
 30
0.0
 10
315.22265625
 20
-391.181640625
 30
0.0
 10
315.37109375
 20
-391.23583984375
 30
0.0
 10
315.482421875
 20
-391.34375
 30
0.0
 10
315.5947265625
 20
-391.45166015625
 30
0.0
 10
315.650390625
 20
-391.59375
 30
0.0
 10
315.650390625
 20
-391.76953125
 30
0.0
 10
315.650390625
 20
-391.9375
 30
0.0
 10
315.5947265625
 20
-392.07373046875
 30
0.0
 10
315.482421875
 20
-392.177734375
 30
0.0
 10
315.37109375
 20
-392.28173828125
 30
0.0
 10
315.22265625
 20
-392.33349609375
 30
0.0
 10
315.0390625
 20
-392.33349609375
 30
0.0
 10
315.0390625
 20
-392.33349609375
 30
0.0
 10
310.2392578125
 20
-392.33349609375
 30
0.0
 10
310.2392578125
 20
-392.33349609375
 30
0.0
 10
310.2392578125
 20
-392.33349609375
 30
0.0
 10
310.2392578125
 20
-395.24951171875
 30
0.0
 10
310.2392578125
 20
-395.24951171875
 30
0.0
 10
310.2392578125
 20
-395.24951171875
 30
0.0
 10
313.6826171875
 20
-395.24951171875
 30
0.0
 10
313.6826171875
 20
-395.24951171875
 30
0.0
 10
313.8671875
 20
-395.24951171875
 30
0.0
 10
314.0146484375
 20
-395.3037109375
 30
0.0
 10
314.126953125
 20
-395.41162109375
 30
0.0
 10
314.23828125
 20
-395.51953125
 30
0.0
 10
314.294921875
 20
-395.65771484375
 30
0.0
 10
314.294921875
 20
-395.82568359375
 30
0.0
 10
314.294921875
 20
-395.99365234375
 30
0.0
 10
314.23828125
 20
-396.1318359375
 30
0.0
 10
314.126953125
 20
-396.23974609375
 30
0.0
 10
314.0146484375
 20
-396.34765625
 30
0.0
 10
313.8671875
 20
-396.40185546875
 30
0.0
 10
313.6826171875
 20
-396.40185546875
 30
0.0
 10
313.6826171875
 20
-396.40185546875
 30
0.0
 10
310.2392578125
 20
-396.40185546875
 30
0.0
 10
310.2392578125
 20
-396.40185546875
 30
0.0
 10
310.2392578125
 20
-396.40185546875
 30
0.0
 10
310.2392578125
 20
-399.4013671875
 30
0.0
 10
310.2392578125
 20
-399.4013671875
 30
0.0
 10
310.2392578125
 20
-399.4013671875
 30
0.0
 10
315.0390625
 20
-399.4013671875
 30
0.0
 10
315.0390625
 20
-399.4013671875
 30
0.0
 10
315.22265625
 20
-399.4013671875
 30
0.0
 10
315.37109375
 20
-399.453125
 30
0.0
 10
315.482421875
 20
-399.5576171875
 30
0.0
 10
315.5947265625
 20
-399.6611328125
 30
0.0
 10
315.650390625
 20
-399.7978515625
 30
0.0
 10
315.650390625
 20
-399.9658203125
 30
0.0
 10
315.650390625
 20
-400.1416015624999
 30
0.0
 10
315.5947265625
 20
-400.2832031249999
 30
0.0
 10
315.482421875
 20
-400.3916015625
 30
0.0
 10
315.37109375
 20
-400.4990234374999
 30
0.0
 10
315.22265625
 20
-400.5537109375
 30
0.0
 10
315.0390625
 20
-400.5537109375
 30
0.0
 10
315.0390625
 20
-400.5537109375
 30
0.0
 10
309.615234375
 20
-400.5537109375
 30
0.0
 10
309.615234375
 20
-400.5537109375
 30
0.0
  0
HATCH
  5
8C
330
79
100
AcDbEntity
  8
Layer 1
 62
   250
420
  2301728
440
 33554687
100
AcDbHatch
 10
0.0
 20
0.0
 30
0.0
210
0.0
220
0.0
230
1.0
  2
SOLID
 70
     1
 71
     1
 91
        1
 92
        1
 93
        1
 72
     4
 94
        3
 73
     0
 74
     0
 95
       80
 96
       76
 40
0.0
 40
0.0
 40
0.0
 40
0.0
 40
1.0
 40
1.0
 40
1.0
 40
2.0
 40
2.0
 40
2.0
 40
3.0
 40
3.0
 40
3.0
 40
4.0
 40
4.0
 40
4.0
 40
5.0
 40
5.0
 40
5.0
 40
6.0
 40
6.0
 40
6.0
 40
7.0
 40
7.0
 40
7.0
 40
8.0
 40
8.0
 40
8.0
 40
9.0
 40
9.0
 40
9.0
 40
10.0
 40
10.0
 40
10.0
 40
11.0
 40
11.0
 40
11.0
 40
12.0
 40
12.0
 40
12.0
 40
13.0
 40
13.0
 40
13.0
 40
14.0
 40
14.0
 40
14.0
 40
15.0
 40
15.0
 40
15.0
 40
16.0
 40
16.0
 40
16.0
 40
17.0
 40
17.0
 40
17.0
 40
18.0
 40
18.0
 40
18.0
 40
19.0
 40
19.0
 40
19.0
 40
20.0
 40
20.0
 40
20.0
 40
21.0
 40
21.0
 40
21.0
 40
22.0
 40
22.0
 40
22.0
 40
23.0
 40
23.0
 40
23.0
 40
24.0
 40
24.0
 40
24.0
 40
25.0
 40
25.0
 40
25.0
 40
25.0
 10
309.615234375
 20
-400.5537109375
 10
309.4384765625
 20
-400.5537109375
 10
309.291015625
 20
-400.4931640625
 10
309.1708984375
 20
-400.3730468749999
 10
309.05078125
 20
-400.25390625
 10
308.9912109375
 20
-400.1054687499999
 10
308.9912109375
 20
-399.9296875
 10
308.9912109375
 20
-399.9296875
 10
308.9912109375
 20
-391.8056640625
 10
308.9912109375
 20
-391.8056640625
 10
308.9912109375
 20
-391.62158203125
 10
309.05078125
 20
-391.4716796875
 10
309.1708984375
 20
-391.35546875
 10
309.291015625
 20
-391.23974609375
 10
309.4384765625
 20
-391.181640625
 10
309.615234375
 20
-391.181640625
 10
309.615234375
 20
-391.181640625
 10
315.0390625
 20
-391.181640625
 10
315.0390625
 20
-391.181640625
 10
315.22265625
 20
-391.181640625
 10
315.37109375
 20
-391.23583984375
 10
315.482421875
 20
-391.34375
 10
315.5947265625
 20
-391.45166015625
 10
315.650390625
 20
-391.59375
 10
315.650390625
 20
-391.76953125
 10
315.650390625
 20
-391.9375
 10
315.5947265625
 20
-392.07373046875
 10
315.482421875
 20
-392.177734375
 10
315.37109375
 20
-392.28173828125
 10
315.22265625
 20
-392.33349609375
 10
315.0390625
 20
-392.33349609375
 10
315.0390625
 20
-392.33349609375
 10
310.2392578125
 20
-392.33349609375
 10
310.2392578125
 20
-392.33349609375
 10
310.2392578125
 20
-392.33349609375
 10
310.2392578125
 20
-395.24951171875
 10
310.2392578125
 20
-395.24951171875
 10
310.2392578125
 20
-395.24951171875
 10
313.6826171875
 20
-395.24951171875
 10
313.6826171875
 20
-395.24951171875
 10
313.8671875
 20
-395.24951171875
 10
314.0146484375
 20
-395.3037109375
 10
314.126953125
 20
-395.41162109375
 10
314.23828125
 20
-395.51953125
 10
314.294921875
 20
-395.65771484375
 10
314.294921875
 20
-395.82568359375
 10
314.294921875
 20
-395.99365234375
 10
314.23828125
 20
-396.1318359375
 10
314.126953125
 20
-396.23974609375
 10
314.0146484375
 20
-396.34765625
 10
313.8671875
 20
-396.40185546875
 10
313.6826171875
 20
-396.40185546875
 10
313.6826171875
 20
-396.40185546875
 10
310.2392578125
 20
-396.40185546875
 10
310.2392578125
 20
-396.40185546875
 10
310.2392578125
 20
-396.40185546875
 10
310.2392578125
 20
-399.4013671875
 10
310.2392578125
 20
-399.4013671875
 10
310.2392578125
 20
-399.4013671875
 10
315.0390625
 20
-399.4013671875
 10
315.0390625
 20
-399.4013671875
 10
315.22265625
 20
-399.4013671875
 10
315.37109375
 20
-399.453125
 10
315.482421875
 20
-399.5576171875
 10
315.5947265625
 20
-399.6611328125
 10
315.650390625
 20
-399.7978515625
 10
315.650390625
 20
-399.9658203125
 10
315.650390625
 20
-400.1416015624999
 10
315.5947265625
 20
-400.2832031249999
 10
315.482421875
 20
-400.3916015625
 10
315.37109375
 20
-400.4990234374999
 10
315.22265625
 20
-400.5537109375
 10
315.0390625
 20
-400.5537109375
 10
315.0390625
 20
-400.5537109375
 10
309.615234375
 20
-400.5537109375
 10
309.615234375
 20
-400.5537109375
 97
        0
 97
        1
330
8B
 75
     2
 76
     1
 98
        1
 10
0.0
 20
0.0
450
        0
451
        0
460
0.0
461
0.0
452
        0
462
0.0
453
        0
470

  0
SPLINE
  5
8D
330
79
100
AcDbEntity
  8
Layer 1
100
AcDbSpline
210
0.0
220
0.0
230
1.0
 70
     9
 71
     3
 72
    68
 73
    64
 74
     0
 42
0.0000000001
 43
0.0000000001
 40
0.0
 40
0.0
 40
0.0
 40
0.0
 40
1.0
 40
1.0
 40
1.0
 40
2.0
 40
2.0
 40
2.0
 40
3.0
 40
3.0
 40
3.0
 40
4.0
 40
4.0
 40
4.0
 40
5.0
 40
5.0
 40
5.0
 40
6.0
 40
6.0
 40
6.0
 40
7.0
 40
7.0
 40
7.0
 40
8.0
 40
8.0
 40
8.0
 40
9.0
 40
9.0
 40
9.0
 40
10.0
 40
10.0
 40
10.0
 40
11.0
 40
11.0
 40
11.0
 40
12.0
 40
12.0
 40
12.0
 40
13.0
 40
13.0
 40
13.0
 40
14.0
 40
14.0
 40
14.0
 40
15.0
 40
15.0
 40
15.0
 40
16.0
 40
16.0
 40
16.0
 40
17.0
 40
17.0
 40
17.0
 40
18.0
 40
18.0
 40
18.0
 40
19.0
 40
19.0
 40
19.0
 40
20.0
 40
20.0
 40
20.0
 40
21.0
 40
21.0
 40
21.0
 40
21.0
 10
318.0029296875
 20
-400.5537109375
 30
0.0
 10
317.826171875
 20
-400.5537109375
 30
0.0
 10
317.6806640625
 20
-400.4931640625
 30
0.0
 10
317.564453125
 20
-400.3730468749999
 30
0.0
 10
317.4482421875
 20
-400.25390625
 30
0.0
 10
317.390625
 20
-400.1054687499999
 30
0.0
 10
317.390625
 20
-399.9296875
 30
0.0
 10
317.390625
 20
-399.9296875
 30
0.0
 10
317.390625
 20
-391.8056640625
 30
0.0
 10
317.390625
 20
-391.8056640625
 30
0.0
 10
317.390625
 20
-391.62158203125
 30
0.0
 10
317.4482421875
 20
-391.4716796875
 30
0.0
 10
317.564453125
 20
-391.35546875
 30
0.0
 10
317.6806640625
 20
-391.23974609375
 30
0.0
 10
317.826171875
 20
-391.181640625
 30
0.0
 10
318.0029296875
 20
-391.181640625
 30
0.0
 10
318.1943359375
 20
-391.181640625
 30
0.0
 10
318.3544921875
 20
-391.2578125
 30
0.0
 10
318.482421875
 20
-391.40966796875
 30
0.0
 10
318.482421875
 20
-391.40966796875
 30
0.0
 10
323.71484375
 20
-398.369140625
 30
0.0
 10
323.71484375
 20
-398.369140625
 30
0.0
 10
323.71484375
 20
-398.369140625
 30
0.0
 10
323.71484375
 20
-391.8056640625
 30
0.0
 10
323.71484375
 20
-391.8056640625
 30
0.0
 10
323.71484375
 20
-391.62158203125
 30
0.0
 10
323.7744140625
 20
-391.4716796875
 30
0.0
 10
323.89453125
 20
-391.35546875
 30
0.0
 10
324.0146484375
 20
-391.23974609375
 30
0.0
 10
324.1630859375
 20
-391.181640625
 30
0.0
 10
324.3388671875
 20
-391.181640625
 30
0.0
 10
324.5224609375
 20
-391.181640625
 30
0.0
 10
324.6708984375
 20
-391.23974609375
 30
0.0
 10
324.7822265625
 20
-391.35546875
 30
0.0
 10
324.89453125
 20
-391.4716796875
 30
0.0
 10
324.9501953125
 20
-391.62158203125
 30
0.0
 10
324.9501953125
 20
-391.8056640625
 30
0.0
 10
324.9501953125
 20
-391.8056640625
 30
0.0
 10
324.9501953125
 20
-399.9296875
 30
0.0
 10
324.9501953125
 20
-399.9296875
 30
0.0
 10
324.9501953125
 20
-400.1054687499999
 30
0.0
 10
324.89453125
 20
-400.25390625
 30
0.0
 10
324.7822265625
 20
-400.3730468749999
 30
0.0
 10
324.6708984375
 20
-400.4931640625
 30
0.0
 10
324.5224609375
 20
-400.5537109375
 30
0.0
 10
324.3388671875
 20
-400.5537109375
 30
0.0
 10
324.2587890625
 20
-400.5537109375
 30
0.0
 10
324.1728515625
 20
-400.53515625
 30
0.0
 10
324.0810546875
 20
-400.4990234374999
 30
0.0
 10
323.98828125
 20
-400.4638671875
 30
0.0
 10
323.9140625
 20
-400.4091796875
 30
0.0
 10
323.8583984375
 20
-400.337890625
 30
0.0
 10
323.8583984375
 20
-400.337890625
 30
0.0
 10
318.626953125
 20
-393.3779296875
 30
0.0
 10
318.626953125
 20
-393.3779296875
 30
0.0
 10
318.626953125
 20
-393.3779296875
 30
0.0
 10
318.626953125
 20
-399.9296875
 30
0.0
 10
318.626953125
 20
-399.9296875
 30
0.0
 10
318.626953125
 20
-400.1054687499999
 30
0.0
 10
318.568359375
 20
-400.25390625
 30
0.0
 10
318.453125
 20
-400.3730468749999
 30
0.0
 10
318.3369140625
 20
-400.4931640625
 30
0.0
 10
318.1865234375
 20
-400.5537109375
 30
0.0
 10
318.0029296875
 20
-400.5537109375
 30
0.0
  0
HATCH
  5
8E
330
79
100
AcDbEntity
  8
Layer 1
 62
   250
420
  2301728
440
 33554687
100
AcDbHatch
 10
0.0
 20
0.0
 30
0.0
210
0.0
220
0.0
230
1.0
  2
SOLID
 70
     1
 71
     1
 91
        1
 92
        1
 93
        1
 72
     4
 94
        3
 73
     0
 74
     0
 95
       68
 96
       64
 40
0.0
 40
0.0
 40
0.0
 40
0.0
 40
1.0
 40
1.0
 40
1.0
 40
2.0
 40
2.0
 40
2.0
 40
3.0
 40
3.0
 40
3.0
 40
4.0
 40
4.0
 40
4.0
 40
5.0
 40
5.0
 40
5.0
 40
6.0
 40
6.0
 40
6.0
 40
7.0
 40
7.0
 40
7.0
 40
8.0
 40
8.0
 40
8.0
 40
9.0
 40
9.0
 40
9.0
 40
10.0
 40
10.0
 40
10.0
 40
11.0
 40
11.0
 40
11.0
 40
12.0
 40
12.0
 40
12.0
 40
13.0
 40
13.0
 40
13.0
 40
14.0
 40
14.0
 40
14.0
 40
15.0
 40
15.0
 40
15.0
 40
16.0
 40
16.0
 40
16.0
 40
17.0
 40
17.0
 40
17.0
 40
18.0
 40
18.0
 40
18.0
 40
19.0
 40
19.0
 40
19.0
 40
20.0
 40
20.0
 40
20.0
 40
21.0
 40
21.0
 40
21.0
 40
21.0
 10
318.0029296875
 20
-400.5537109375
 10
317.826171875
 20
-400.5537109375
 10
317.6806640625
 20
-400.4931640625
 10
317.564453125
 20
-400.3730468749999
 10
317.4482421875
 20
-400.25390625
 10
317.390625
 20
-400.1054687499999
 10
317.390625
 20
-399.9296875
 10
317.390625
 20
-399.9296875
 10
317.390625
 20
-391.8056640625
 10
317.390625
 20
-391.8056640625
 10
317.390625
 20
-391.62158203125
 10
317.4482421875
 20
-391.4716796875
 10
317.564453125
 20
-391.35546875
 10
317.6806640625
 20
-391.23974609375
 10
317.826171875
 20
-391.181640625
 10
318.0029296875
 20
-391.181640625
 10
318.1943359375
 20
-391.181640625
 10
318.3544921875
 20
-391.2578125
 10
318.482421875
 20
-391.40966796875
 10
318.482421875
 20
-391.40966796875
 10
323.71484375
 20
-398.369140625
 10
323.71484375
 20
-398.369140625
 10
323.71484375
 20
-398.369140625
 10
323.71484375
 20
-391.8056640625
 10
323.71484375
 20
-391.8056640625
 10
323.71484375
 20
-391.62158203125
 10
323.7744140625
 20
-391.4716796875
 10
323.89453125
 20
-391.35546875
 10
324.0146484375
 20
-391.23974609375
 10
324.1630859375
 20
-391.181640625
 10
324.3388671875
 20
-391.181640625
 10
324.5224609375
 20
-391.181640625
 10
324.6708984375
 20
-391.23974609375
 10
324.7822265625
 20
-391.35546875
 10
324.89453125
 20
-391.4716796875
 10
324.9501953125
 20
-391.62158203125
 10
324.9501953125
 20
-391.8056640625
 10
324.9501953125
 20
-391.8056640625
 10
324.9501953125
 20
-399.9296875
 10
324.9501953125
 20
-399.9296875
 10
324.9501953125
 20
-400.1054687499999
 10
324.89453125
 20
-400.25390625
 10
324.7822265625
 20
-400.3730468749999
 10
324.6708984375
 20
-400.4931640625
 10
324.5224609375
 20
-400.5537109375
 10
324.3388671875
 20
-400.5537109375
 10
324.2587890625
 20
-400.5537109375
 10
324.1728515625
 20
-400.53515625
 10
324.0810546875
 20
-400.4990234374999
 10
323.98828125
 20
-400.4638671875
 10
323.9140625
 20
-400.4091796875
 10
323.8583984375
 20
-400.337890625
 10
323.8583984375
 20
-400.337890625
 10
318.626953125
 20
-393.3779296875
 10
318.626953125
 20
-393.3779296875
 10
318.626953125
 20
-393.3779296875
 10
318.626953125
 20
-399.9296875
 10
318.626953125
 20
-399.9296875
 10
318.626953125
 20
-400.1054687499999
 10
318.568359375
 20
-400.25390625
 10
318.453125
 20
-400.3730468749999
 10
318.3369140625
 20
-400.4931640625
 10
318.1865234375
 20
-400.5537109375
 10
318.0029296875
 20
-400.5537109375
 97
        0
 97
        1
330
8D
 75
     2
 76
     1
 98
        1
 10
0.0
 20
0.0
450
        0
451
        0
460
0.0
461
0.0
452
        0
462
0.0
453
        0
470

  0
SPLINE
  5
8F
330
79
100
AcDbEntity
  8
Layer 1
100
AcDbSpline
210
0.0
220
0.0
230
1.0
 70
     9
 71
     3
 72
   128
 73
   124
 74
     0
 42
0.0000000001
 43
0.0000000001
 40
0.0
 40
0.0
 40
0.0
 40
0.0
 40
1.0
 40
1.0
 40
1.0
 40
2.0
 40
2.0
 40
2.0
 40
3.0
 40
3.0
 40
3.0
 40
4.0
 40
4.0
 40
4.0
 40
5.0
 40
5.0
 40
5.0
 40
6.0
 40
6.0
 40
6.0
 40
7.0
 40
7.0
 40
7.0
 40
8.0
 40
8.0
 40
8.0
 40
9.0
 40
9.0
 40
9.0
 40
10.0
 40
10.0
 40
10.0
 40
11.0
 40
11.0
 40
11.0
 40
12.0
 40
12.0
 40
12.0
 40
13.0
 40
13.0
 40
13.0
 40
14.0
 40
14.0
 40
14.0
 40
15.0
 40
15.0
 40
15.0
 40
16.0
 40
16.0
 40
16.0
 40
17.0
 40
17.0
 40
17.0
 40
18.0
 40
18.0
 40
18.0
 40
19.0
 40
19.0
 40
19.0
 40
20.0
 40
20.0
 40
20.0
 40
21.0
 40
21.0
 40
21.0
 40
22.0
 40
22.0
 40
22.0
 40
23.0
 40
23.0
 40
23.0
 40
24.0
 40
24.0
 40
24.0
 40
25.0
 40
25.0
 40
25.0
 40
26.0
 40
26.0
 40
26.0
 40
27.0
 40
27.0
 40
27.0
 40
28.0
 40
28.0
 40
28.0
 40
29.0
 40
29.0
 40
29.0
 40
30.0
 40
30.0
 40
30.0
 40
31.0
 40
31.0
 40
31.0
 40
32.0
 40
32.0
 40
32.0
 40
33.0
 40
33.0
 40
33.0
 40
34.0
 40
34.0
 40
34.0
 40
35.0
 40
35.0
 40
35.0
 40
36.0
 40
36.0
 40
36.0
 40
37.0
 40
37.0
 40
37.0
 40
38.0
 40
38.0
 40
38.0
 40
39.0
 40
39.0
 40
39.0
 40
40.0
 40
40.0
 40
40.0
 40
41.0
 40
41.0
 40
41.0
 40
41.0
 10
330.326171875
 20
-400.6738281249999
 30
0.0
 10
329.814453125
 20
-400.6738281249999
 30
0.0
 10
329.326171875
 20
-400.5937499999999
 30
0.0
 10
328.8623046875
 20
-400.43359375
 30
0.0
 10
328.3984375
 20
-400.2734375
 30
0.0
 10
327.994140625
 20
-400.0498046875
 30
0.0
 10
327.650390625
 20
-399.76171875
 30
0.0
 10
327.306640625
 20
-399.4736328125
 30
0.0
 10
327.0546875
 20
-399.1416015625
 30
0.0
 10
326.89453125
 20
-398.765625
 30
0.0
 10
326.814453125
 20
-398.59765625
 30
0.0
 10
326.81640625
 20
-398.44140625
 30
0.0
 10
326.900390625
 20
-398.2978515625
 30
0.0
 10
326.984375
 20
-398.1533203125
 30
0.0
 10
327.126953125
 20
-398.0615234375
 30
0.0
 10
327.326171875
 20
-398.021484375
 30
0.0
 10
327.470703125
 20
-397.9892578125
 30
0.0
 10
327.6123046875
 20
-398.01171875
 30
0.0
 10
327.7529296875
 20
-398.087890625
 30
0.0
 10
327.892578125
 20
-398.1640625
 30
0.0
 10
327.9990234375
 20
-398.27734375
 30
0.0
 10
328.0703125
 20
-398.4296875
 30
0.0
 10
328.1669921875
 20
-398.6298828125
 30
0.0
 10
328.32421875
 20
-398.8134765625
 30
0.0
 10
328.544921875
 20
-398.9814453125
 30
0.0
 10
328.7646484375
 20
-399.1494140625
 30
0.0
 10
329.0302734375
 20
-399.28515625
 30
0.0
 10
329.3427734375
 20
-399.3896484375
 30
0.0
 10
329.654296875
 20
-399.4931640625
 30
0.0
 10
329.982421875
 20
-399.5458984375
 30
0.0
 10
330.326171875
 20
-399.5458984375
 30
0.0
 10
330.7109375
 20
-399.5458984375
 30
0.0
 10
331.064453125
 20
-399.4853515625
 30
0.0
 10
331.388671875
 20
-399.365234375
 30
0.0
 10
331.712890625
 20
-399.2451171875
 30
0.0
 10
331.974609375
 20
-399.0712890625
 30
0.0
 10
332.1748046875
 20
-398.84375
 30
0.0
 10
332.3740234375
 20
-398.615234375
 30
0.0
 10
332.474609375
 20
-398.3330078125
 30
0.0
 10
332.474609375
 20
-397.9970703125
 30
0.0
 10
332.474609375
 20
-397.5732421875
 30
0.0
 10
332.30859375
 20
-397.193359375
 30
0.0
 10
331.9765625
 20
-396.85791015625
 30
0.0
 10
331.64453125
 20
-396.521484375
 30
0.0
 10
331.0986328125
 20
-396.31396484375
 30
0.0
 10
330.3388671875
 20
-396.23388671875
 30
0.0
 10
329.3466796875
 20
-396.1376953125
 30
0.0
 10
328.56640625
 20
-395.845703125
 30
0.0
 10
327.9990234375
 20
-395.35791015625
 30
0.0
 10
327.4306640625
 20
-394.86962890625
 30
0.0
 10
327.146484375
 20
-394.265625
 30
0.0
 10
327.146484375
 20
-393.5458984375
 30
0.0
 10
327.146484375
 20
-393.017578125
 30
0.0
 10
327.294921875
 20
-392.56982421875
 30
0.0
 10
327.5908203125
 20
-392.20166015625
 30
0.0
 10
327.88671875
 20
-391.833984375
 30
0.0
 10
328.2880859375
 20
-391.5537109375
 30
0.0
 10
328.796875
 20
-391.36181640625
 30
0.0
 10
329.3046875
 20
-391.169921875
 30
0.0
 10
329.87109375
 20
-391.07373046875
 30
0.0
 10
330.4951171875
 20
-391.07373046875
 30
0.0
 10
330.982421875
 20
-391.07373046875
 30
0.0
 10
331.408203125
 20
-391.1416015625
 30
0.0
 10
331.7724609375
 20
-391.27783203125
 30
0.0
 10
332.13671875
 20
-391.4140625
 30
0.0
 10
332.4541015625
 20
-391.6015625
 30
0.0
 10
332.7265625
 20
-391.841796875
 30
0.0
 10
332.998046875
 20
-392.08154296875
 30
0.0
 10
333.234375
 20
-392.36572265625
 30
0.0
 10
333.4345703125
 20
-392.69384765625
 30
0.0
 10
333.546875
 20
-392.86962890625
 30
0.0
 10
333.5927734375
 20
-393.03564453125
 30
0.0
 10
333.572265625
 20
-393.19189453125
 30
0.0
 10
333.552734375
 20
-393.34765625
 30
0.0
 10
333.474609375
 20
-393.4697265625
 30
0.0
 10
333.3388671875
 20
-393.5576171875
 30
0.0
 10
333.1865234375
 20
-393.65380859375
 30
0.0
 10
333.0224609375
 20
-393.673828125
 30
0.0
 10
332.8466796875
 20
-393.61767578125
 30
0.0
 10
332.6708984375
 20
-393.56201171875
 30
0.0
 10
332.5380859375
 20
-393.4580078125
 30
0.0
 10
332.4501953125
 20
-393.3056640625
 30
0.0
 10
332.322265625
 20
-393.07373046875
 30
0.0
 10
332.1669921875
 20
-392.8779296875
 30
0.0
 10
331.982421875
 20
-392.7177734375
 30
0.0
 10
331.798828125
 20
-392.5576171875
 30
0.0
 10
331.58203125
 20
-392.431640625
 30
0.0
 10
331.3349609375
 20
-392.33984375
 30
0.0
 10
331.0869140625
 20
-392.248046875
 30
0.0
 10
330.794921875
 20
-392.20166015625
 30
0.0
 10
330.458984375
 20
-392.20166015625
 30
0.0
 10
329.8662109375
 20
-392.19384765625
 30
0.0
 10
329.3701171875
 20
-392.3037109375
 30
0.0
 10
328.970703125
 20
-392.53173828125
 30
0.0
 10
328.5703125
 20
-392.759765625
 30
0.0
 10
328.37109375
 20
-393.10986328125
 30
0.0
 10
328.37109375
 20
-393.58154296875
 30
0.0
 10
328.37109375
 20
-393.82177734375
 30
0.0
 10
328.4326171875
 20
-394.0517578125
 30
0.0
 10
328.556640625
 20
-394.271484375
 30
0.0
 10
328.6806640625
 20
-394.49169921875
 30
0.0
 10
328.908203125
 20
-394.681640625
 30
0.0
 10
329.240234375
 20
-394.841796875
 30
0.0
 10
329.572265625
 20
-395.001953125
 30
0.0
 10
330.05078125
 20
-395.11376953125
 30
0.0
 10
330.6748046875
 20
-395.177734375
 30
0.0
 10
331.626953125
 20
-395.27392578125
 30
0.0
 10
332.3681640625
 20
-395.56396484375
 30
0.0
 10
332.900390625
 20
-396.0478515625
 30
0.0
 10
333.4326171875
 20
-396.53173828125
 30
0.0
 10
333.6982421875
 20
-397.169921875
 30
0.0
 10
333.6982421875
 20
-397.9619140625
 30
0.0
 10
333.6982421875
 20
-398.4169921875
 30
0.0
 10
333.6044921875
 20
-398.8134765625
 30
0.0
 10
333.4169921875
 20
-399.1494140625
 30
0.0
 10
333.228515625
 20
-399.4853515625
 30
0.0
 10
332.9765625
 20
-399.767578125
 30
0.0
 10
332.66015625
 20
-399.9951171875
 30
0.0
 10
332.3447265625
 20
-400.2236328124999
 30
0.0
 10
331.984375
 20
-400.3935546874999
 30
0.0
 10
331.5810546875
 20
-400.505859375
 30
0.0
 10
331.1767578125
 20
-400.6171874999999
 30
0.0
 10
330.7587890625
 20
-400.6738281249999
 30
0.0
 10
330.326171875
 20
-400.6738281249999
 30
0.0
  0
HATCH
  5
90
330
79
100
AcDbEntity
  8
Layer 1
 62
   250
420
  2301728
440
 33554687
100
AcDbHatch
 10
0.0
 20
0.0
 30
0.0
210
0.0
220
0.0
230
1.0
  2
SOLID
 70
     1
 71
     1
 91
        1
 92
        1
 93
        1
 72
     4
 94
        3
 73
     0
 74
     0
 95
      128
 96
      124
 40
0.0
 40
0.0
 40
0.0
 40
0.0
 40
1.0
 40
1.0
 40
1.0
 40
2.0
 40
2.0
 40
2.0
 40
3.0
 40
3.0
 40
3.0
 40
4.0
 40
4.0
 40
4.0
 40
5.0
 40
5.0
 40
5.0
 40
6.0
 40
6.0
 40
6.0
 40
7.0
 40
7.0
 40
7.0
 40
8.0
 40
8.0
 40
8.0
 40
9.0
 40
9.0
 40
9.0
 40
10.0
 40
10.0
 40
10.0
 40
11.0
 40
11.0
 40
11.0
 40
12.0
 40
12.0
 40
12.0
 40
13.0
 40
13.0
 40
13.0
 40
14.0
 40
14.0
 40
14.0
 40
15.0
 40
15.0
 40
15.0
 40
16.0
 40
16.0
 40
16.0
 40
17.0
 40
17.0
 40
17.0
 40
18.0
 40
18.0
 40
18.0
 40
19.0
 40
19.0
 40
19.0
 40
20.0
 40
20.0
 40
20.0
 40
21.0
 40
21.0
 40
21.0
 40
22.0
 40
22.0
 40
22.0
 40
23.0
 40
23.0
 40
23.0
 40
24.0
 40
24.0
 40
24.0
 40
25.0
 40
25.0
 40
25.0
 40
26.0
 40
26.0
 40
26.0
 40
27.0
 40
27.0
 40
27.0
 40
28.0
 40
28.0
 40
28.0
 40
29.0
 40
29.0
 40
29.0
 40
30.0
 40
30.0
 40
30.0
 40
31.0
 40
31.0
 40
31.0
 40
32.0
 40
32.0
 40
32.0
 40
33.0
 40
33.0
 40
33.0
 40
34.0
 40
34.0
 40
34.0
 40
35.0
 40
35.0
 40
35.0
 40
36.0
 40
36.0
 40
36.0
 40
37.0
 40
37.0
 40
37.0
 40
38.0
 40
38.0
 40
38.0
 40
39.0
 40
39.0
 40
39.0
 40
40.0
 40
40.0
 40
40.0
 40
41.0
 40
41.0
 40
41.0
 40
41.0
 10
330.326171875
 20
-400.6738281249999
 10
329.814453125
 20
-400.6738281249999
 10
329.326171875
 20
-400.5937499999999
 10
328.8623046875
 20
-400.43359375
 10
328.3984375
 20
-400.2734375
 10
327.994140625
 20
-400.0498046875
 10
327.650390625
 20
-399.76171875
 10
327.306640625
 20
-399.4736328125
 10
327.0546875
 20
-399.1416015625
 10
326.89453125
 20
-398.765625
 10
326.814453125
 20
-398.59765625
 10
326.81640625
 20
-398.44140625
 10
326.900390625
 20
-398.2978515625
 10
326.984375
 20
-398.1533203125
 10
327.126953125
 20
-398.0615234375
 10
327.326171875
 20
-398.021484375
 10
327.470703125
 20
-397.9892578125
 10
327.6123046875
 20
-398.01171875
 10
327.7529296875
 20
-398.087890625
 10
327.892578125
 20
-398.1640625
 10
327.9990234375
 20
-398.27734375
 10
328.0703125
 20
-398.4296875
 10
328.1669921875
 20
-398.6298828125
 10
328.32421875
 20
-398.8134765625
 10
328.544921875
 20
-398.9814453125
 10
328.7646484375
 20
-399.1494140625
 10
329.0302734375
 20
-399.28515625
 10
329.3427734375
 20
-399.3896484375
 10
329.654296875
 20
-399.4931640625
 10
329.982421875
 20
-399.5458984375
 10
330.326171875
 20
-399.5458984375
 10
330.7109375
 20
-399.5458984375
 10
331.064453125
 20
-399.4853515625
 10
331.388671875
 20
-399.365234375
 10
331.712890625
 20
-399.2451171875
 10
331.974609375
 20
-399.0712890625
 10
332.1748046875
 20
-398.84375
 10
332.3740234375
 20
-398.615234375
 10
332.474609375
 20
-398.3330078125
 10
332.474609375
 20
-397.9970703125
 10
332.474609375
 20
-397.5732421875
 10
332.30859375
 20
-397.193359375
 10
331.9765625
 20
-396.85791015625
 10
331.64453125
 20
-396.521484375
 10
331.0986328125
 20
-396.31396484375
 10
330.3388671875
 20
-396.23388671875
 10
329.3466796875
 20
-396.1376953125
 10
328.56640625
 20
-395.845703125
 10
327.9990234375
 20
-395.35791015625
 10
327.4306640625
 20
-394.86962890625
 10
327.146484375
 20
-394.265625
 10
327.146484375
 20
-393.5458984375
 10
327.146484375
 20
-393.017578125
 10
327.294921875
 20
-392.56982421875
 10
327.5908203125
 20
-392.20166015625
 10
327.88671875
 20
-391.833984375
 10
328.2880859375
 20
-391.5537109375
 10
328.796875
 20
-391.36181640625
 10
329.3046875
 20
-391.169921875
 10
329.87109375
 20
-391.07373046875
 10
330.4951171875
 20
-391.07373046875
 10
330.982421875
 20
-391.07373046875
 10
331.408203125
 20
-391.1416015625
 10
331.7724609375
 20
-391.27783203125
 10
332.13671875
 20
-391.4140625
 10
332.4541015625
 20
-391.6015625
 10
332.7265625
 20
-391.841796875
 10
332.998046875
 20
-392.08154296875
 10
333.234375
 20
-392.36572265625
 10
333.4345703125
 20
-392.69384765625
 10
333.546875
 20
-392.86962890625
 10
333.5927734375
 20
-393.03564453125
 10
333.572265625
 20
-393.19189453125
 10
333.552734375
 20
-393.34765625
 10
333.474609375
 20
-393.4697265625
 10
333.3388671875
 20
-393.5576171875
 10
333.1865234375
 20
-393.65380859375
 10
333.0224609375
 20
-393.673828125
 10
332.8466796875
 20
-393.61767578125
 10
332.6708984375
 20
-393.56201171875
 10
332.5380859375
 20
-393.4580078125
 10
332.4501953125
 20
-393.3056640625
 10
332.322265625
 20
-393.07373046875
 10
332.1669921875
 20
-392.8779296875
 10
331.982421875
 20
-392.7177734375
 10
331.798828125
 20
-392.5576171875
 10
331.58203125
 20
-392.431640625
 10
331.3349609375
 20
-392.33984375
 10
331.0869140625
 20
-392.248046875
 10
330.794921875
 20
-392.20166015625
 10
330.458984375
 20
-392.20166015625
 10
329.8662109375
 20
-392.19384765625
 10
329.3701171875
 20
-392.3037109375
 10
328.970703125
 20
-392.53173828125
 10
328.5703125
 20
-392.759765625
 10
328.37109375
 20
-393.10986328125
 10
328.37109375
 20
-393.58154296875
 10
328.37109375
 20
-393.82177734375
 10
328.4326171875
 20
-394.0517578125
 10
328.556640625
 20
-394.271484375
 10
328.6806640625
 20
-394.49169921875
 10
328.908203125
 20
-394.681640625
 10
329.240234375
 20
-394.841796875
 10
329.572265625
 20
-395.001953125
 10
330.05078125
 20
-395.11376953125
 10
330.6748046875
 20
-395.177734375
 10
331.626953125
 20
-395.27392578125
 10
332.3681640625
 20
-395.56396484375
 10
332.900390625
 20
-396.0478515625
 10
333.4326171875
 20
-396.53173828125
 10
333.6982421875
 20
-397.169921875
 10
333.6982421875
 20
-397.9619140625
 10
333.6982421875
 20
-398.4169921875
 10
333.6044921875
 20
-398.8134765625
 10
333.4169921875
 20
-399.1494140625
 10
333.228515625
 20
-399.4853515625
 10
332.9765625
 20
-399.767578125
 10
332.66015625
 20
-399.9951171875
 10
332.3447265625
 20
-400.2236328124999
 10
331.984375
 20
-400.3935546874999
 10
331.5810546875
 20
-400.505859375
 10
331.1767578125
 20
-400.6171874999999
 10
330.7587890625
 20
-400.6738281249999
 10
330.326171875
 20
-400.6738281249999
 97
        0
 97
        1
330
8F
 75
     2
 76
     1
 98
        1
 10
0.0
 20
0.0
450
        0
451
        0
460
0.0
461
0.0
452
        0
462
0.0
453
        0
470

  0
SPLINE
  5
91
330
79
100
AcDbEntity
  8
Layer 1
100
AcDbSpline
210
0.0
220
0.0
230
1.0
 70
    11
 71
     3
 72
    17
 73
    13
 74
     0
 42
0.0000000001
 43
0.0000000001
 40
0.0
 40
0.0
 40
0.0
 40
0.0
 40
1.0
 40
1.0
 40
1.0
 40
2.0
 40
2.0
 40
2.0
 40
3.0
 40
3.0
 40
3.0
 40
4.0
 40
4.0
 40
4.0
 40
4.0
 10
335.8701171875
 20
-398.4892578125
 30
0.0
 10
335.8701171875
 20
-398.4892578125
 30
0.0
 10
336.3505859375
 20
-397.45703125
 30
0.0
 10
336.3505859375
 20
-397.45703125
 30
0.0
 10
336.3505859375
 20
-397.45703125
 30
0.0
 10
341.0546875
 20
-397.45703125
 30
0.0
 10
341.0546875
 20
-397.45703125
 30
0.0
 10
341.0546875
 20
-397.45703125
 30
0.0
 10
341.5341796875
 20
-398.4892578125
 30
0.0
 10
341.5341796875
 20
-398.4892578125
 30
0.0
 10
341.5341796875
 20
-398.4892578125
 30
0.0
 10
335.8701171875
 20
-398.4892578125
 30
0.0
 10
335.8701171875
 20
-398.4892578125
 30
0.0
  0
SPLINE
  5
92
330
79
100
AcDbEntity
  8
Layer 1
100
AcDbSpline
210
0.0
220
0.0
230
1.0
 70
     9
 71
     3
 72
    50
 73
    46
 74
     0
 42
0.0000000001
 43
0.0000000001
 40
0.0
 40
0.0
 40
0.0
 40
0.0
 40
1.0
 40
1.0
 40
1.0
 40
2.0
 40
2.0
 40
2.0
 40
3.0
 40
3.0
 40
3.0
 40
4.0
 40
4.0
 40
4.0
 40
5.0
 40
5.0
 40
5.0
 40
6.0
 40
6.0
 40
6.0
 40
7.0
 40
7.0
 40
7.0
 40
8.0
 40
8.0
 40
8.0
 40
9.0
 40
9.0
 40
9.0
 40
10.0
 40
10.0
 40
10.0
 40
11.0
 40
11.0
 40
11.0
 40
12.0
 40
12.0
 40
12.0
 40
13.0
 40
13.0
 40
13.0
 40
14.0
 40
14.0
 40
14.0
 40
15.0
 40
15.0
 40
15.0
 40
15.0
 10
335.234375
 20
-400.5537109375
 30
0.0
 10
335.0107421875
 20
-400.5537109375
 30
0.0
 10
334.8388671875
 20
-400.45703125
 30
0.0
 10
334.71875
 20
-400.265625
 30
0.0
 10
334.5986328125
 20
-400.0732421875
 30
0.0
 10
334.5869140625
 20
-399.869140625
 30
0.0
 10
334.6826171875
 20
-399.6533203125
 30
0.0
 10
334.6826171875
 20
-399.6533203125
 30
0.0
 10
338.0546875
 20
-391.6015625
 30
0.0
 10
338.0546875
 20
-391.6015625
 30
0.0
 10
338.1748046875
 20
-391.32177734375
 30
0.0
 10
338.3701171875
 20
-391.181640625
 30
0.0
 10
338.642578125
 20
-391.181640625
 30
0.0
 10
338.9306640625
 20
-391.181640625
 30
0.0
 10
339.1259765625
 20
-391.32177734375
 30
0.0
 10
339.23046875
 20
-391.6015625
 30
0.0
 10
339.23046875
 20
-391.6015625
 30
0.0
 10
342.6142578125
 20
-399.677734375
 30
0.0
 10
342.6142578125
 20
-399.677734375
 30
0.0
 10
342.7021484375
 20
-399.9013671875
 30
0.0
 10
342.6884765625
 20
-400.103515625
 30
0.0
 10
342.572265625
 20
-400.2832031249999
 30
0.0
 10
342.4560546875
 20
-400.4638671875
 30
0.0
 10
342.2822265625
 20
-400.5537109375
 30
0.0
 10
342.05078125
 20
-400.5537109375
 30
0.0
 10
341.9306640625
 20
-400.5537109375
 30
0.0
 10
341.81640625
 20
-400.5195312499999
 30
0.0
 10
341.7080078125
 20
-400.4511718749999
 30
0.0
 10
341.6005859375
 20
-400.3837890625
 30
0.0
 10
341.5224609375
 20
-400.2890625
 30
0.0
 10
341.474609375
 20
-400.1699218749999
 30
0.0
 10
341.474609375
 20
-400.1699218749999
 30
0.0
 10
338.498046875
 20
-392.77783203125
 30
0.0
 10
338.498046875
 20
-392.77783203125
 30
0.0
 10
338.498046875
 20
-392.77783203125
 30
0.0
 10
338.8349609375
 20
-392.77783203125
 30
0.0
 10
338.8349609375
 20
-392.77783203125
 30
0.0
 10
338.8349609375
 20
-392.77783203125
 30
0.0
 10
335.810546875
 20
-400.1699218749999
 30
0.0
 10
335.810546875
 20
-400.1699218749999
 30
0.0
 10
335.7548828125
 20
-400.2978515625
 30
0.0
 10
335.6728515625
 20
-400.3935546874999
 30
0.0
 10
335.564453125
 20
-400.45703125
 30
0.0
 10
335.4560546875
 20
-400.521484375
 30
0.0
 10
335.3466796875
 20
-400.5537109375
 30
0.0
 10
335.234375
 20
-400.5537109375
 30
0.0
  0
HATCH
  5
93
330
79
100
AcDbEntity
  8
Layer 1
 62
   250
420
  2301728
440
 33554687
100
AcDbHatch
 10
0.0
 20
0.0
 30
0.0
210
0.0
220
0.0
230
1.0
  2
SOLID
 70
     1
 71
     1
 91
        2
 92
        1
 93
        1
 72
     4
 94
        3
 73
     0
 74
     0
 95
       17
 96
       13
 40
0.0
 40
0.0
 40
0.0
 40
0.0
 40
1.0
 40
1.0
 40
1.0
 40
2.0
 40
2.0
 40
2.0
 40
3.0
 40
3.0
 40
3.0
 40
4.0
 40
4.0
 40
4.0
 40
4.0
 10
335.8701171875
 20
-398.4892578125
 10
335.8701171875
 20
-398.4892578125
 10
336.3505859375
 20
-397.45703125
 10
336.3505859375
 20
-397.45703125
 10
336.3505859375
 20
-397.45703125
 10
341.0546875
 20
-397.45703125
 10
341.0546875
 20
-397.45703125
 10
341.0546875
 20
-397.45703125
 10
341.5341796875
 20
-398.4892578125
 10
341.5341796875
 20
-398.4892578125
 10
341.5341796875
 20
-398.4892578125
 10
335.8701171875
 20
-398.4892578125
 10
335.8701171875
 20
-398.4892578125
 97
        0
 97
        1
330
91
 92
        1
 93
        1
 72
     4
 94
        3
 73
     0
 74
     0
 95
       50
 96
       46
 40
0.0
 40
0.0
 40
0.0
 40
0.0
 40
1.0
 40
1.0
 40
1.0
 40
2.0
 40
2.0
 40
2.0
 40
3.0
 40
3.0
 40
3.0
 40
4.0
 40
4.0
 40
4.0
 40
5.0
 40
5.0
 40
5.0
 40
6.0
 40
6.0
 40
6.0
 40
7.0
 40
7.0
 40
7.0
 40
8.0
 40
8.0
 40
8.0
 40
9.0
 40
9.0
 40
9.0
 40
10.0
 40
10.0
 40
10.0
 40
11.0
 40
11.0
 40
11.0
 40
12.0
 40
12.0
 40
12.0
 40
13.0
 40
13.0
 40
13.0
 40
14.0
 40
14.0
 40
14.0
 40
15.0
 40
15.0
 40
15.0
 40
15.0
 10
335.234375
 20
-400.5537109375
 10
335.0107421875
 20
-400.5537109375
 10
334.8388671875
 20
-400.45703125
 10
334.71875
 20
-400.265625
 10
334.5986328125
 20
-400.0732421875
 10
334.5869140625
 20
-399.869140625
 10
334.6826171875
 20
-399.6533203125
 10
334.6826171875
 20
-399.6533203125
 10
338.0546875
 20
-391.6015625
 10
338.0546875
 20
-391.6015625
 10
338.1748046875
 20
-391.32177734375
 10
338.3701171875
 20
-391.181640625
 10
338.642578125
 20
-391.181640625
 10
338.9306640625
 20
-391.181640625
 10
339.1259765625
 20
-391.32177734375
 10
339.23046875
 20
-391.6015625
 10
339.23046875
 20
-391.6015625
 10
342.6142578125
 20
-399.677734375
 10
342.6142578125
 20
-399.677734375
 10
342.7021484375
 20
-399.9013671875
 10
342.6884765625
 20
-400.103515625
 10
342.572265625
 20
-400.2832031249999
 10
342.4560546875
 20
-400.4638671875
 10
342.2822265625
 20
-400.5537109375
 10
342.05078125
 20
-400.5537109375
 10
341.9306640625
 20
-400.5537109375
 10
341.81640625
 20
-400.5195312499999
 10
341.7080078125
 20
-400.4511718749999
 10
341.6005859375
 20
-400.3837890625
 10
341.5224609375
 20
-400.2890625
 10
341.474609375
 20
-400.1699218749999
 10
341.474609375
 20
-400.1699218749999
 10
338.498046875
 20
-392.77783203125
 10
338.498046875
 20
-392.77783203125
 10
338.498046875
 20
-392.77783203125
 10
338.8349609375
 20
-392.77783203125
 10
338.8349609375
 20
-392.77783203125
 10
338.8349609375
 20
-392.77783203125
 10
335.810546875
 20
-400.1699218749999
 10
335.810546875
 20
-400.1699218749999
 10
335.7548828125
 20
-400.2978515625
 10
335.6728515625
 20
-400.3935546874999
 10
335.564453125
 20
-400.45703125
 10
335.4560546875
 20
-400.521484375
 10
335.3466796875
 20
-400.5537109375
 10
335.234375
 20
-400.5537109375
 97
        0
 97
        1
330
92
 75
     2
 76
     1
 98
        1
 10
0.0
 20
0.0
450
        0
451
        0
460
0.0
461
0.0
452
        0
462
0.0
453
        0
470

  0
SPLINE
  5
94
330
79
100
AcDbEntity
  8
Layer 1
100
AcDbSpline
210
0.0
220
0.0
230
1.0
 70
    11
 71
     3
 72
    32
 73
    28
 74
     0
 42
0.0000000001
 43
0.0000000001
 40
0.0
 40
0.0
 40
0.0
 40
0.0
 40
1.0
 40
1.0
 40
1.0
 40
2.0
 40
2.0
 40
2.0
 40
3.0
 40
3.0
 40
3.0
 40
4.0
 40
4.0
 40
4.0
 40
5.0
 40
5.0
 40
5.0
 40
6.0
 40
6.0
 40
6.0
 40
7.0
 40
7.0
 40
7.0
 40
8.0
 40
8.0
 40
8.0
 40
9.0
 40
9.0
 40
9.0
 40
9.0
 10
345.291015625
 20
-399.4013671875
 30
0.0
 10
345.291015625
 20
-399.4013671875
 30
0.0
 10
347.7861328125
 20
-399.4013671875
 30
0.0
 10
347.7861328125
 20
-399.4013671875
 30
0.0
 10
348.154296875
 20
-399.4013671875
 30
0.0
 10
348.478515625
 20
-399.337890625
 30
0.0
 10
348.7587890625
 20
-399.208984375
 30
0.0
 10
349.0380859375
 20
-399.08203125
 30
0.0
 10
349.2587890625
 20
-398.8935546875
 30
0.0
 10
349.4189453125
 20
-398.6455078125
 30
0.0
 10
349.578125
 20
-398.3974609375
 30
0.0
 10
349.658203125
 20
-398.08984375
 30
0.0
 10
349.658203125
 20
-397.7216796875
 30
0.0
 10
349.658203125
 20
-397.3779296875
 30
0.0
 10
349.578125
 20
-397.09375
 30
0.0
 10
349.4189453125
 20
-396.86962890625
 30
0.0
 10
349.2587890625
 20
-396.64599609375
 30
0.0
 10
349.0380859375
 20
-396.4755859375
 30
0.0
 10
348.7587890625
 20
-396.35986328125
 30
0.0
 10
348.478515625
 20
-396.24365234375
 30
0.0
 10
348.154296875
 20
-396.185546875
 30
0.0
 10
347.7861328125
 20
-396.185546875
 30
0.0
 10
347.7861328125
 20
-396.185546875
 30
0.0
 10
345.291015625
 20
-396.185546875
 30
0.0
 10
345.291015625
 20
-396.185546875
 30
0.0
 10
345.291015625
 20
-396.185546875
 30
0.0
 10
345.291015625
 20
-399.4013671875
 30
0.0
 10
345.291015625
 20
-399.4013671875
 30
0.0
  0
SPLINE
  5
95
330
79
100
AcDbEntity
  8
Layer 1
100
AcDbSpline
210
0.0
220
0.0
230
1.0
 70
    11
 71
     3
 72
    26
 73
    22
 74
     0
 42
0.0000000001
 43
0.0000000001
 40
0.0
 40
0.0
 40
0.0
 40
0.0
 40
1.0
 40
1.0
 40
1.0
 40
2.0
 40
2.0
 40
2.0
 40
3.0
 40
3.0
 40
3.0
 40
4.0
 40
4.0
 40
4.0
 40
5.0
 40
5.0
 40
5.0
 40
6.0
 40
6.0
 40
6.0
 40
7.0
 40
7.0
 40
7.0
 40
7.0
 10
345.291015625
 20
-395.03369140625
 30
0.0
 10
345.291015625
 20
-395.03369140625
 30
0.0
 10
347.5341796875
 20
-395.03369140625
 30
0.0
 10
347.5341796875
 20
-395.03369140625
 30
0.0
 10
347.990234375
 20
-395.03369140625
 30
0.0
 10
348.3642578125
 20
-394.921875
 30
0.0
 10
348.65625
 20
-394.69775390625
 30
0.0
 10
348.9482421875
 20
-394.4736328125
 30
0.0
 10
349.0947265625
 20
-394.1337890625
 30
0.0
 10
349.0947265625
 20
-393.677734375
 30
0.0
 10
349.0947265625
 20
-393.2216796875
 30
0.0
 10
348.9482421875
 20
-392.8837890625
 30
0.0
 10
348.65625
 20
-392.66357421875
 30
0.0
 10
348.3642578125
 20
-392.44384765625
 30
0.0
 10
347.990234375
 20
-392.33349609375
 30
0.0
 10
347.5341796875
 20
-392.33349609375
 30
0.0
 10
347.5341796875
 20
-392.33349609375
 30
0.0
 10
345.291015625
 20
-392.33349609375
 30
0.0
 10
345.291015625
 20
-392.33349609375
 30
0.0
 10
345.291015625
 20
-392.33349609375
 30
0.0
 10
345.291015625
 20
-395.03369140625
 30
0.0
 10
345.291015625
 20
-395.03369140625
 30
0.0
  0
SPLINE
  5
96
330
79
100
AcDbEntity
  8
Layer 1
100
AcDbSpline
210
0.0
220
0.0
230
1.0
 70
     9
 71
     3
 72
    56
 73
    52
 74
     0
 42
0.0000000001
 43
0.0000000001
 40
0.0
 40
0.0
 40
0.0
 40
0.0
 40
1.0
 40
1.0
 40
1.0
 40
2.0
 40
2.0
 40
2.0
 40
3.0
 40
3.0
 40
3.0
 40
4.0
 40
4.0
 40
4.0
 40
5.0
 40
5.0
 40
5.0
 40
6.0
 40
6.0
 40
6.0
 40
7.0
 40
7.0
 40
7.0
 40
8.0
 40
8.0
 40
8.0
 40
9.0
 40
9.0
 40
9.0
 40
10.0
 40
10.0
 40
10.0
 40
11.0
 40
11.0
 40
11.0
 40
12.0
 40
12.0
 40
12.0
 40
13.0
 40
13.0
 40
13.0
 40
14.0
 40
14.0
 40
14.0
 40
15.0
 40
15.0
 40
15.0
 40
16.0
 40
16.0
 40
16.0
 40
17.0
 40
17.0
 40
17.0
 40
17.0
 10
344.6669921875
 20
-400.5537109375
 30
0.0
 10
344.490234375
 20
-400.5537109375
 30
0.0
 10
344.3427734375
 20
-400.4931640625
 30
0.0
 10
344.22265625
 20
-400.3730468749999
 30
0.0
 10
344.1025390625
 20
-400.25390625
 30
0.0
 10
344.04296875
 20
-400.1054687499999
 30
0.0
 10
344.04296875
 20
-399.9296875
 30
0.0
 10
344.04296875
 20
-399.9296875
 30
0.0
 10
344.04296875
 20
-391.8056640625
 30
0.0
 10
344.04296875
 20
-391.8056640625
 30
0.0
 10
344.04296875
 20
-391.62158203125
 30
0.0
 10
344.1025390625
 20
-391.4716796875
 30
0.0
 10
344.22265625
 20
-391.35546875
 30
0.0
 10
344.3427734375
 20
-391.23974609375
 30
0.0
 10
344.490234375
 20
-391.181640625
 30
0.0
 10
344.6669921875
 20
-391.181640625
 30
0.0
 10
344.6669921875
 20
-391.181640625
 30
0.0
 10
347.5341796875
 20
-391.181640625
 30
0.0
 10
347.5341796875
 20
-391.181640625
 30
0.0
 10
348.078125
 20
-391.181640625
 30
0.0
 10
348.556640625
 20
-391.28759765625
 30
0.0
 10
348.96875
 20
-391.49951171875
 30
0.0
 10
349.380859375
 20
-391.7119140625
 30
0.0
 10
349.7041015625
 20
-392.005859375
 30
0.0
 10
349.9404296875
 20
-392.3818359375
 30
0.0
 10
350.1767578125
 20
-392.7578125
 30
0.0
 10
350.294921875
 20
-393.18994140625
 30
0.0
 10
350.294921875
 20
-393.677734375
 30
0.0
 10
350.294921875
 20
-394.06982421875
 30
0.0
 10
350.1884765625
 20
-394.423828125
 30
0.0
 10
349.9765625
 20
-394.73974609375
 30
0.0
 10
349.7646484375
 20
-395.0556640625
 30
0.0
 10
349.474609375
 20
-395.3056640625
 30
0.0
 10
349.1064453125
 20
-395.48974609375
 30
0.0
 10
349.634765625
 20
-395.61767578125
 30
0.0
 10
350.05859375
 20
-395.86962890625
 30
0.0
 10
350.37890625
 20
-396.24560546875
 30
0.0
 10
350.6982421875
 20
-396.6220703125
 30
0.0
 10
350.8583984375
 20
-397.11328125
 30
0.0
 10
350.8583984375
 20
-397.7216796875
 30
0.0
 10
350.8583984375
 20
-398.2734375
 30
0.0
 10
350.728515625
 20
-398.76171875
 30
0.0
 10
350.46875
 20
-399.185546875
 30
0.0
 10
350.2080078125
 20
-399.609375
 30
0.0
 10
349.8466796875
 20
-399.943359375
 30
0.0
 10
349.3828125
 20
-400.1875
 30
0.0
 10
348.9189453125
 20
-400.431640625
 30
0.0
 10
348.38671875
 20
-400.5537109375
 30
0.0
 10
347.7861328125
 20
-400.5537109375
 30
0.0
 10
347.7861328125
 20
-400.5537109375
 30
0.0
 10
344.6669921875
 20
-400.5537109375
 30
0.0
 10
344.6669921875
 20
-400.5537109375
 30
0.0
  0
HATCH
  5
97
330
79
100
AcDbEntity
  8
Layer 1
 62
   250
420
  2301728
440
 33554687
100
AcDbHatch
 10
0.0
 20
0.0
 30
0.0
210
0.0
220
0.0
230
1.0
  2
SOLID
 70
     1
 71
     1
 91
        3
 92
        1
 93
        1
 72
     4
 94
        3
 73
     0
 74
     0
 95
       32
 96
       28
 40
0.0
 40
0.0
 40
0.0
 40
0.0
 40
1.0
 40
1.0
 40
1.0
 40
2.0
 40
2.0
 40
2.0
 40
3.0
 40
3.0
 40
3.0
 40
4.0
 40
4.0
 40
4.0
 40
5.0
 40
5.0
 40
5.0
 40
6.0
 40
6.0
 40
6.0
 40
7.0
 40
7.0
 40
7.0
 40
8.0
 40
8.0
 40
8.0
 40
9.0
 40
9.0
 40
9.0
 40
9.0
 10
345.291015625
 20
-399.4013671875
 10
345.291015625
 20
-399.4013671875
 10
347.7861328125
 20
-399.4013671875
 10
347.7861328125
 20
-399.4013671875
 10
348.154296875
 20
-399.4013671875
 10
348.478515625
 20
-399.337890625
 10
348.7587890625
 20
-399.208984375
 10
349.0380859375
 20
-399.08203125
 10
349.2587890625
 20
-398.8935546875
 10
349.4189453125
 20
-398.6455078125
 10
349.578125
 20
-398.3974609375
 10
349.658203125
 20
-398.08984375
 10
349.658203125
 20
-397.7216796875
 10
349.658203125
 20
-397.3779296875
 10
349.578125
 20
-397.09375
 10
349.4189453125
 20
-396.86962890625
 10
349.2587890625
 20
-396.64599609375
 10
349.0380859375
 20
-396.4755859375
 10
348.7587890625
 20
-396.35986328125
 10
348.478515625
 20
-396.24365234375
 10
348.154296875
 20
-396.185546875
 10
347.7861328125
 20
-396.185546875
 10
347.7861328125
 20
-396.185546875
 10
345.291015625
 20
-396.185546875
 10
345.291015625
 20
-396.185546875
 10
345.291015625
 20
-396.185546875
 10
345.291015625
 20
-399.4013671875
 10
345.291015625
 20
-399.4013671875
 97
        0
 97
        1
330
94
 92
        1
 93
        1
 72
     4
 94
        3
 73
     0
 74
     0
 95
       26
 96
       22
 40
0.0
 40
0.0
 40
0.0
 40
0.0
 40
1.0
 40
1.0
 40
1.0
 40
2.0
 40
2.0
 40
2.0
 40
3.0
 40
3.0
 40
3.0
 40
4.0
 40
4.0
 40
4.0
 40
5.0
 40
5.0
 40
5.0
 40
6.0
 40
6.0
 40
6.0
 40
7.0
 40
7.0
 40
7.0
 40
7.0
 10
345.291015625
 20
-395.03369140625
 10
345.291015625
 20
-395.03369140625
 10
347.5341796875
 20
-395.03369140625
 10
347.5341796875
 20
-395.03369140625
 10
347.990234375
 20
-395.03369140625
 10
348.3642578125
 20
-394.921875
 10
348.65625
 20
-394.69775390625
 10
348.9482421875
 20
-394.4736328125
 10
349.0947265625
 20
-394.1337890625
 10
349.0947265625
 20
-393.677734375
 10
349.0947265625
 20
-393.2216796875
 10
348.9482421875
 20
-392.8837890625
 10
348.65625
 20
-392.66357421875
 10
348.3642578125
 20
-392.44384765625
 10
347.990234375
 20
-392.33349609375
 10
347.5341796875
 20
-392.33349609375
 10
347.5341796875
 20
-392.33349609375
 10
345.291015625
 20
-392.33349609375
 10
345.291015625
 20
-392.33349609375
 10
345.291015625
 20
-392.33349609375
 10
345.291015625
 20
-395.03369140625
 10
345.291015625
 20
-395.03369140625
 97
        0
 97
        1
330
95
 92
        1
 93
        1
 72
     4
 94
        3
 73
     0
 74
     0
 95
       56
 96
       52
 40
0.0
 40
0.0
 40
0.0
 40
0.0
 40
1.0
 40
1.0
 40
1.0
 40
2.0
 40
2.0
 40
2.0
 40
3.0
 40
3.0
 40
3.0
 40
4.0
 40
4.0
 40
4.0
 40
5.0
 40
5.0
 40
5.0
 40
6.0
 40
6.0
 40
6.0
 40
7.0
 40
7.0
 40
7.0
 40
8.0
 40
8.0
 40
8.0
 40
9.0
 40
9.0
 40
9.0
 40
10.0
 40
10.0
 40
10.0
 40
11.0
 40
11.0
 40
11.0
 40
12.0
 40
12.0
 40
12.0
 40
13.0
 40
13.0
 40
13.0
 40
14.0
 40
14.0
 40
14.0
 40
15.0
 40
15.0
 40
15.0
 40
16.0
 40
16.0
 40
16.0
 40
17.0
 40
17.0
 40
17.0
 40
17.0
 10
344.6669921875
 20
-400.5537109375
 10
344.490234375
 20
-400.5537109375
 10
344.3427734375
 20
-400.4931640625
 10
344.22265625
 20
-400.3730468749999
 10
344.1025390625
 20
-400.25390625
 10
344.04296875
 20
-400.1054687499999
 10
344.04296875
 20
-399.9296875
 10
344.04296875
 20
-399.9296875
 10
344.04296875
 20
-391.8056640625
 10
344.04296875
 20
-391.8056640625
 10
344.04296875
 20
-391.62158203125
 10
344.1025390625
 20
-391.4716796875
 10
344.22265625
 20
-391.35546875
 10
344.3427734375
 20
-391.23974609375
 10
344.490234375
 20
-391.181640625
 10
344.6669921875
 20
-391.181640625
 10
344.6669921875
 20
-391.181640625
 10
347.5341796875
 20
-391.181640625
 10
347.5341796875
 20
-391.181640625
 10
348.078125
 20
-391.181640625
 10
348.556640625
 20
-391.28759765625
 10
348.96875
 20
-391.49951171875
 10
349.380859375
 20
-391.7119140625
 10
349.7041015625
 20
-392.005859375
 10
349.9404296875
 20
-392.3818359375
 10
350.1767578125
 20
-392.7578125
 10
350.294921875
 20
-393.18994140625
 10
350.294921875
 20
-393.677734375
 10
350.294921875
 20
-394.06982421875
 10
350.1884765625
 20
-394.423828125
 10
349.9765625
 20
-394.73974609375
 10
349.7646484375
 20
-395.0556640625
 10
349.474609375
 20
-395.3056640625
 10
349.1064453125
 20
-395.48974609375
 10
349.634765625
 20
-395.61767578125
 10
350.05859375
 20
-395.86962890625
 10
350.37890625
 20
-396.24560546875
 10
350.6982421875
 20
-396.6220703125
 10
350.8583984375
 20
-397.11328125
 10
350.8583984375
 20
-397.7216796875
 10
350.8583984375
 20
-398.2734375
 10
350.728515625
 20
-398.76171875
 10
350.46875
 20
-399.185546875
 10
350.2080078125
 20
-399.609375
 10
349.8466796875
 20
-399.943359375
 10
349.3828125
 20
-400.1875
 10
348.9189453125
 20
-400.431640625
 10
348.38671875
 20
-400.5537109375
 10
347.7861328125
 20
-400.5537109375
 10
347.7861328125
 20
-400.5537109375
 10
344.6669921875
 20
-400.5537109375
 10
344.6669921875
 20
-400.5537109375
 97
        0
 97
        1
330
96
 75
     2
 76
     1
 98
        1
 10
0.0
 20
0.0
450
        0
451
        0
460
0.0
461
0.0
452
        0
462
0.0
453
        0
470

  0
SPLINE
  5
98
330
79
100
AcDbEntity
  8
Layer 1
100
AcDbSpline
210
0.0
220
0.0
230
1.0
 70
     9
 71
     3
 72
    47
 73
    43
 74
     0
 42
0.0000000001
 43
0.0000000001
 40
0.0
 40
0.0
 40
0.0
 40
0.0
 40
1.0
 40
1.0
 40
1.0
 40
2.0
 40
2.0
 40
2.0
 40
3.0
 40
3.0
 40
3.0
 40
4.0
 40
4.0
 40
4.0
 40
5.0
 40
5.0
 40
5.0
 40
6.0
 40
6.0
 40
6.0
 40
7.0
 40
7.0
 40
7.0
 40
8.0
 40
8.0
 40
8.0
 40
9.0
 40
9.0
 40
9.0
 40
10.0
 40
10.0
 40
10.0
 40
11.0
 40
11.0
 40
11.0
 40
12.0
 40
12.0
 40
12.0
 40
13.0
 40
13.0
 40
13.0
 40
14.0
 40
14.0
 40
14.0
 40
14.0
 10
353.330078125
 20
-400.5537109375
 30
0.0
 10
353.154296875
 20
-400.5537109375
 30
0.0
 10
353.0078125
 20
-400.4931640625
 30
0.0
 10
352.892578125
 20
-400.3730468749999
 30
0.0
 10
352.7763671875
 20
-400.25390625
 30
0.0
 10
352.71875
 20
-400.1054687499999
 30
0.0
 10
352.71875
 20
-399.9296875
 30
0.0
 10
352.71875
 20
-399.9296875
 30
0.0
 10
352.71875
 20
-391.8056640625
 30
0.0
 10
352.71875
 20
-391.8056640625
 30
0.0
 10
352.71875
 20
-391.6298828125
 30
0.0
 10
352.7783203125
 20
-391.48193359375
 30
0.0
 10
352.8984375
 20
-391.36181640625
 30
0.0
 10
353.0185546875
 20
-391.24169921875
 30
0.0
 10
353.162109375
 20
-391.181640625
 30
0.0
 10
353.330078125
 20
-391.181640625
 30
0.0
 10
353.505859375
 20
-391.181640625
 30
0.0
 10
353.654296875
 20
-391.24169921875
 30
0.0
 10
353.7744140625
 20
-391.36181640625
 30
0.0
 10
353.89453125
 20
-391.48193359375
 30
0.0
 10
353.9541015625
 20
-391.6298828125
 30
0.0
 10
353.9541015625
 20
-391.8056640625
 30
0.0
 10
353.9541015625
 20
-391.8056640625
 30
0.0
 10
353.9541015625
 20
-399.3056640625
 30
0.0
 10
353.9541015625
 20
-399.3056640625
 30
0.0
 10
353.9541015625
 20
-399.3056640625
 30
0.0
 10
358.2978515625
 20
-399.3056640625
 30
0.0
 10
358.2978515625
 20
-399.3056640625
 30
0.0
 10
358.474609375
 20
-399.3056640625
 30
0.0
 10
358.6220703125
 20
-399.365234375
 30
0.0
 10
358.7421875
 20
-399.4853515625
 30
0.0
 10
358.8623046875
 20
-399.60546875
 30
0.0
 10
358.921875
 20
-399.75390625
 30
0.0
 10
358.921875
 20
-399.9296875
 30
0.0
 10
358.921875
 20
-400.1054687499999
 30
0.0
 10
358.8623046875
 20
-400.25390625
 30
0.0
 10
358.7421875
 20
-400.3730468749999
 30
0.0
 10
358.6220703125
 20
-400.4931640625
 30
0.0
 10
358.474609375
 20
-400.5537109375
 30
0.0
 10
358.2978515625
 20
-400.5537109375
 30
0.0
 10
358.2978515625
 20
-400.5537109375
 30
0.0
 10
353.330078125
 20
-400.5537109375
 30
0.0
 10
353.330078125
 20
-400.5537109375
 30
0.0
  0
HATCH
  5
99
330
79
100
AcDbEntity
  8
Layer 1
 62
   250
420
  2301728
440
 33554687
100
AcDbHatch
 10
0.0
 20
0.0
 30
0.0
210
0.0
220
0.0
230
1.0
  2
SOLID
 70
     1
 71
     1
 91
        1
 92
        1
 93
        1
 72
     4
 94
        3
 73
     0
 74
     0
 95
       47
 96
       43
 40
0.0
 40
0.0
 40
0.0
 40
0.0
 40
1.0
 40
1.0
 40
1.0
 40
2.0
 40
2.0
 40
2.0
 40
3.0
 40
3.0
 40
3.0
 40
4.0
 40
4.0
 40
4.0
 40
5.0
 40
5.0
 40
5.0
 40
6.0
 40
6.0
 40
6.0
 40
7.0
 40
7.0
 40
7.0
 40
8.0
 40
8.0
 40
8.0
 40
9.0
 40
9.0
 40
9.0
 40
10.0
 40
10.0
 40
10.0
 40
11.0
 40
11.0
 40
11.0
 40
12.0
 40
12.0
 40
12.0
 40
13.0
 40
13.0
 40
13.0
 40
14.0
 40
14.0
 40
14.0
 40
14.0
 10
353.330078125
 20
-400.5537109375
 10
353.154296875
 20
-400.5537109375
 10
353.0078125
 20
-400.4931640625
 10
352.892578125
 20
-400.3730468749999
 10
352.7763671875
 20
-400.25390625
 10
352.71875
 20
-400.1054687499999
 10
352.71875
 20
-399.9296875
 10
352.71875
 20
-399.9296875
 10
352.71875
 20
-391.8056640625
 10
352.71875
 20
-391.8056640625
 10
352.71875
 20
-391.6298828125
 10
352.7783203125
 20
-391.48193359375
 10
352.8984375
 20
-391.36181640625
 10
353.0185546875
 20
-391.24169921875
 10
353.162109375
 20
-391.181640625
 10
353.330078125
 20
-391.181640625
 10
353.505859375
 20
-391.181640625
 10
353.654296875
 20
-391.24169921875
 10
353.7744140625
 20
-391.36181640625
 10
353.89453125
 20
-391.48193359375
 10
353.9541015625
 20
-391.6298828125
 10
353.9541015625
 20
-391.8056640625
 10
353.9541015625
 20
-391.8056640625
 10
353.9541015625
 20
-399.3056640625
 10
353.9541015625
 20
-399.3056640625
 10
353.9541015625
 20
-399.3056640625
 10
358.2978515625
 20
-399.3056640625
 10
358.2978515625
 20
-399.3056640625
 10
358.474609375
 20
-399.3056640625
 10
358.6220703125
 20
-399.365234375
 10
358.7421875
 20
-399.4853515625
 10
358.8623046875
 20
-399.60546875
 10
358.921875
 20
-399.75390625
 10
358.921875
 20
-399.9296875
 10
358.921875
 20
-400.1054687499999
 10
358.8623046875
 20
-400.25390625
 10
358.7421875
 20
-400.3730468749999
 10
358.6220703125
 20
-400.4931640625
 10
358.474609375
 20
-400.5537109375
 10
358.2978515625
 20
-400.5537109375
 10
358.2978515625
 20
-400.5537109375
 10
353.330078125
 20
-400.5537109375
 10
353.330078125
 20
-400.5537109375
 97
        0
 97
        1
330
98
 75
     2
 76
     1
 98
        1
 10
0.0
 20
0.0
450
        0
451
        0
460
0.0
461
0.0
452
        0
462
0.0
453
        0
470

  0
SPLINE
  5
9A
330
79
100
AcDbEntity
  8
Layer 1
100
AcDbSpline
210
0.0
220
0.0
230
1.0
 70
     9
 71
     3
 72
    80
 73
    76
 74
     0
 42
0.0000000001
 43
0.0000000001
 40
0.0
 40
0.0
 40
0.0
 40
0.0
 40
1.0
 40
1.0
 40
1.0
 40
2.0
 40
2.0
 40
2.0
 40
3.0
 40
3.0
 40
3.0
 40
4.0
 40
4.0
 40
4.0
 40
5.0
 40
5.0
 40
5.0
 40
6.0
 40
6.0
 40
6.0
 40
7.0
 40
7.0
 40
7.0
 40
8.0
 40
8.0
 40
8.0
 40
9.0
 40
9.0
 40
9.0
 40
10.0
 40
10.0
 40
10.0
 40
11.0
 40
11.0
 40
11.0
 40
12.0
 40
12.0
 40
12.0
 40
13.0
 40
13.0
 40
13.0
 40
14.0
 40
14.0
 40
14.0
 40
15.0
 40
15.0
 40
15.0
 40
16.0
 40
16.0
 40
16.0
 40
17.0
 40
17.0
 40
17.0
 40
18.0
 40
18.0
 40
18.0
 40
19.0
 40
19.0
 40
19.0
 40
20.0
 40
20.0
 40
20.0
 40
21.0
 40
21.0
 40
21.0
 40
22.0
 40
22.0
 40
22.0
 40
23.0
 40
23.0
 40
23.0
 40
24.0
 40
24.0
 40
24.0
 40
25.0
 40
25.0
 40
25.0
 40
25.0
 10
361.046875
 20
-400.5537109375
 30
0.0
 10
360.8701171875
 20
-400.5537109375
 30
0.0
 10
360.72265625
 20
-400.4931640625
 30
0.0
 10
360.6025390625
 20
-400.3730468749999
 30
0.0
 10
360.482421875
 20
-400.25390625
 30
0.0
 10
360.4228515625
 20
-400.1054687499999
 30
0.0
 10
360.4228515625
 20
-399.9296875
 30
0.0
 10
360.4228515625
 20
-399.9296875
 30
0.0
 10
360.4228515625
 20
-391.8056640625
 30
0.0
 10
360.4228515625
 20
-391.8056640625
 30
0.0
 10
360.4228515625
 20
-391.62158203125
 30
0.0
 10
360.482421875
 20
-391.4716796875
 30
0.0
 10
360.6025390625
 20
-391.35546875
 30
0.0
 10
360.72265625
 20
-391.23974609375
 30
0.0
 10
360.8701171875
 20
-391.181640625
 30
0.0
 10
361.046875
 20
-391.181640625
 30
0.0
 10
361.046875
 20
-391.181640625
 30
0.0
 10
366.470703125
 20
-391.181640625
 30
0.0
 10
366.470703125
 20
-391.181640625
 30
0.0
 10
366.654296875
 20
-391.181640625
 30
0.0
 10
366.802734375
 20
-391.23583984375
 30
0.0
 10
366.9150390625
 20
-391.34375
 30
0.0
 10
367.0263671875
 20
-391.45166015625
 30
0.0
 10
367.0830078125
 20
-391.59375
 30
0.0
 10
367.0830078125
 20
-391.76953125
 30
0.0
 10
367.0830078125
 20
-391.9375
 30
0.0
 10
367.0263671875
 20
-392.07373046875
 30
0.0
 10
366.9150390625
 20
-392.177734375
 30
0.0
 10
366.802734375
 20
-392.28173828125
 30
0.0
 10
366.654296875
 20
-392.33349609375
 30
0.0
 10
366.470703125
 20
-392.33349609375
 30
0.0
 10
366.470703125
 20
-392.33349609375
 30
0.0
 10
361.6708984375
 20
-392.33349609375
 30
0.0
 10
361.6708984375
 20
-392.33349609375
 30
0.0
 10
361.6708984375
 20
-392.33349609375
 30
0.0
 10
361.6708984375
 20
-395.24951171875
 30
0.0
 10
361.6708984375
 20
-395.24951171875
 30
0.0
 10
361.6708984375
 20
-395.24951171875
 30
0.0
 10
365.1142578125
 20
-395.24951171875
 30
0.0
 10
365.1142578125
 20
-395.24951171875
 30
0.0
 10
365.298828125
 20
-395.24951171875
 30
0.0
 10
365.4462890625
 20
-395.3037109375
 30
0.0
 10
365.55859375
 20
-395.41162109375
 30
0.0
 10
365.6708984375
 20
-395.51953125
 30
0.0
 10
365.7265625
 20
-395.65771484375
 30
0.0
 10
365.7265625
 20
-395.82568359375
 30
0.0
 10
365.7265625
 20
-395.99365234375
 30
0.0
 10
365.6708984375
 20
-396.1318359375
 30
0.0
 10
365.55859375
 20
-396.23974609375
 30
0.0
 10
365.4462890625
 20
-396.34765625
 30
0.0
 10
365.298828125
 20
-396.40185546875
 30
0.0
 10
365.1142578125
 20
-396.40185546875
 30
0.0
 10
365.1142578125
 20
-396.40185546875
 30
0.0
 10
361.6708984375
 20
-396.40185546875
 30
0.0
 10
361.6708984375
 20
-396.40185546875
 30
0.0
 10
361.6708984375
 20
-396.40185546875
 30
0.0
 10
361.6708984375
 20
-399.4013671875
 30
0.0
 10
361.6708984375
 20
-399.4013671875
 30
0.0
 10
361.6708984375
 20
-399.4013671875
 30
0.0
 10
366.470703125
 20
-399.4013671875
 30
0.0
 10
366.470703125
 20
-399.4013671875
 30
0.0
 10
366.654296875
 20
-399.4013671875
 30
0.0
 10
366.802734375
 20
-399.453125
 30
0.0
 10
366.9150390625
 20
-399.5576171875
 30
0.0
 10
367.0263671875
 20
-399.6611328125
 30
0.0
 10
367.0830078125
 20
-399.7978515625
 30
0.0
 10
367.0830078125
 20
-399.9658203125
 30
0.0
 10
367.0830078125
 20
-400.1416015624999
 30
0.0
 10
367.0263671875
 20
-400.2832031249999
 30
0.0
 10
366.9150390625
 20
-400.3916015625
 30
0.0
 10
366.802734375
 20
-400.4990234374999
 30
0.0
 10
366.654296875
 20
-400.5537109375
 30
0.0
 10
366.470703125
 20
-400.5537109375
 30
0.0
 10
366.470703125
 20
-400.5537109375
 30
0.0
 10
361.046875
 20
-400.5537109375
 30
0.0
 10
361.046875
 20
-400.5537109375
 30
0.0
  0
HATCH
  5
9B
330
79
100
AcDbEntity
  8
Layer 1
 62
   250
420
  2301728
440
 33554687
100
AcDbHatch
 10
0.0
 20
0.0
 30
0.0
210
0.0
220
0.0
230
1.0
  2
SOLID
 70
     1
 71
     1
 91
        1
 92
        1
 93
        1
 72
     4
 94
        3
 73
     0
 74
     0
 95
       80
 96
       76
 40
0.0
 40
0.0
 40
0.0
 40
0.0
 40
1.0
 40
1.0
 40
1.0
 40
2.0
 40
2.0
 40
2.0
 40
3.0
 40
3.0
 40
3.0
 40
4.0
 40
4.0
 40
4.0
 40
5.0
 40
5.0
 40
5.0
 40
6.0
 40
6.0
 40
6.0
 40
7.0
 40
7.0
 40
7.0
 40
8.0
 40
8.0
 40
8.0
 40
9.0
 40
9.0
 40
9.0
 40
10.0
 40
10.0
 40
10.0
 40
11.0
 40
11.0
 40
11.0
 40
12.0
 40
12.0
 40
12.0
 40
13.0
 40
13.0
 40
13.0
 40
14.0
 40
14.0
 40
14.0
 40
15.0
 40
15.0
 40
15.0
 40
16.0
 40
16.0
 40
16.0
 40
17.0
 40
17.0
 40
17.0
 40
18.0
 40
18.0
 40
18.0
 40
19.0
 40
19.0
 40
19.0
 40
20.0
 40
20.0
 40
20.0
 40
21.0
 40
21.0
 40
21.0
 40
22.0
 40
22.0
 40
22.0
 40
23.0
 40
23.0
 40
23.0
 40
24.0
 40
24.0
 40
24.0
 40
25.0
 40
25.0
 40
25.0
 40
25.0
 10
361.046875
 20
-400.5537109375
 10
360.8701171875
 20
-400.5537109375
 10
360.72265625
 20
-400.4931640625
 10
360.6025390625
 20
-400.3730468749999
 10
360.482421875
 20
-400.25390625
 10
360.4228515625
 20
-400.1054687499999
 10
360.4228515625
 20
-399.9296875
 10
360.4228515625
 20
-399.9296875
 10
360.4228515625
 20
-391.8056640625
 10
360.4228515625
 20
-391.8056640625
 10
360.4228515625
 20
-391.62158203125
 10
360.482421875
 20
-391.4716796875
 10
360.6025390625
 20
-391.35546875
 10
360.72265625
 20
-391.23974609375
 10
360.8701171875
 20
-391.181640625
 10
361.046875
 20
-391.181640625
 10
361.046875
 20
-391.181640625
 10
366.470703125
 20
-391.181640625
 10
366.470703125
 20
-391.181640625
 10
366.654296875
 20
-391.181640625
 10
366.802734375
 20
-391.23583984375
 10
366.9150390625
 20
-391.34375
 10
367.0263671875
 20
-391.45166015625
 10
367.0830078125
 20
-391.59375
 10
367.0830078125
 20
-391.76953125
 10
367.0830078125
 20
-391.9375
 10
367.0263671875
 20
-392.07373046875
 10
366.9150390625
 20
-392.177734375
 10
366.802734375
 20
-392.28173828125
 10
366.654296875
 20
-392.33349609375
 10
366.470703125
 20
-392.33349609375
 10
366.470703125
 20
-392.33349609375
 10
361.6708984375
 20
-392.33349609375
 10
361.6708984375
 20
-392.33349609375
 10
361.6708984375
 20
-392.33349609375
 10
361.6708984375
 20
-395.24951171875
 10
361.6708984375
 20
-395.24951171875
 10
361.6708984375
 20
-395.24951171875
 10
365.1142578125
 20
-395.24951171875
 10
365.1142578125
 20
-395.24951171875
 10
365.298828125
 20
-395.24951171875
 10
365.4462890625
 20
-395.3037109375
 10
365.55859375
 20
-395.41162109375
 10
365.6708984375
 20
-395.51953125
 10
365.7265625
 20
-395.65771484375
 10
365.7265625
 20
-395.82568359375
 10
365.7265625
 20
-395.99365234375
 10
365.6708984375
 20
-396.1318359375
 10
365.55859375
 20
-396.23974609375
 10
365.4462890625
 20
-396.34765625
 10
365.298828125
 20
-396.40185546875
 10
365.1142578125
 20
-396.40185546875
 10
365.1142578125
 20
-396.40185546875
 10
361.6708984375
 20
-396.40185546875
 10
361.6708984375
 20
-396.40185546875
 10
361.6708984375
 20
-396.40185546875
 10
361.6708984375
 20
-399.4013671875
 10
361.6708984375
 20
-399.4013671875
 10
361.6708984375
 20
-399.4013671875
 10
366.470703125
 20
-399.4013671875
 10
366.470703125
 20
-399.4013671875
 10
366.654296875
 20
-399.4013671875
 10
366.802734375
 20
-399.453125
 10
366.9150390625
 20
-399.5576171875
 10
367.0263671875
 20
-399.6611328125
 10
367.0830078125
 20
-399.7978515625
 10
367.0830078125
 20
-399.9658203125
 10
367.0830078125
 20
-400.1416015624999
 10
367.0263671875
 20
-400.2832031249999
 10
366.9150390625
 20
-400.3916015625
 10
366.802734375
 20
-400.4990234374999
 10
366.654296875
 20
-400.5537109375
 10
366.470703125
 20
-400.5537109375
 10
366.470703125
 20
-400.5537109375
 10
361.046875
 20
-400.5537109375
 10
361.046875
 20
-400.5537109375
 97
        0
 97
        1
330
9A
 75
     2
 76
     1
 98
        1
 10
0.0
 20
0.0
450
        0
451
        0
460
0.0
461
0.0
452
        0
462
0.0
453
        0
470

  0
ENDBLK
  5
7C
330
79
100
AcDbEntity
  8
0
100
AcDbBlockEnd
  0
ENDSEC
  0
SECTION
  2
ENTITIES
  0
INSERT
  5
7A
330
70
100
AcDbEntity
  8
Layer 1
100
AcDbBlockReference
  2
Block_0
 10
0.0
 20
0.0
 30
0.0
  0
SPLINE
  5
9C
330
70
100
AcDbEntity
  8
Layer 1
 62
   250
420
  2301728
370
    35
100
AcDbSpline
210
0.0
220
0.0
230
1.0
 70
    11
 71
     3
 72
    32
 73
    28
 74
     0
 42
0.0000000001
 43
0.0000000001
 40
0.0
 40
0.0
 40
0.0
 40
0.0
 40
1.0
 40
1.0
 40
1.0
 40
2.0
 40
2.0
 40
2.0
 40
3.0
 40
3.0
 40
3.0
 40
4.0
 40
4.0
 40
4.0
 40
5.0
 40
5.0
 40
5.0
 40
6.0
 40
6.0
 40
6.0
 40
7.0
 40
7.0
 40
7.0
 40
8.0
 40
8.0
 40
8.0
 40
9.0
 40
9.0
 40
9.0
 40
9.0
 10
258.8276619979024
 20
-396.3052853467252
 30
0.0
 10
258.8276619979024
 20
-396.3052853467252
 30
0.0
 10
258.8276619979024
 20
-398.363019578399
 30
0.0
 10
258.8276619979024
 20
-398.363019578399
 30
0.0
 10
258.8276619979024
 20
-399.4525226353435
 30
0.0
 10
257.9444452626067
 20
-400.3357393706392
 30
0.0
 10
256.854942205664
 20
-400.3357393706392
 30
0.0
 10
256.854942205664
 20
-400.3357393706392
 30
0.0
 10
256.8549382602196
 20
-400.3357393706392
 30
0.0
 10
256.8549382602196
 20
-400.3357393706392
 30
0.0
 10
255.7654352032769
 20
-400.3357393706392
 30
0.0
 10
254.8822184679811
 20
-399.4525226353435
 30
0.0
 10
254.8822184679811
 20
-398.363019578399
 30
0.0
 10
254.8822184679811
 20
-398.363019578399
 30
0.0
 10
254.8822184679811
 20
-393.5043832209749
 30
0.0
 10
254.8822184679811
 20
-393.5043832209749
 30
0.0
 10
254.8822184679811
 20
-392.4148801640313
 30
0.0
 10
255.7654352032769
 20
-391.5316634287356
 30
0.0
 10
256.8549382602196
 20
-391.5316634287356
 30
0.0
 10
256.8549382602196
 20
-391.5316634287356
 30
0.0
 10
256.854942205664
 20
-391.5316634287356
 30
0.0
 10
256.854942205664
 20
-391.5316634287356
 30
0.0
 10
257.9444452626067
 20
-391.5316634287356
 30
0.0
 10
258.8276619979024
 20
-392.4148801640313
 30
0.0
 10
258.8276619979024
 20
-393.504383220974
 30
0.0
 10
258.8276619979024
 20
-393.504383220974
 30
0.0
 10
258.8276619979024
 20
-396.3052853467252
 30
0.0
 10
258.8276619979024
 20
-396.3052853467252
 30
0.0
  0
LINE
  5
9D
330
70
100
AcDbEntity
  8
Layer 1
 62
   250
420
  2301728
370
    35
100
AcDbLine
 10
255.19859009421
 20
-395.9487318899491
 30
0.0
 11
258.8231235304138
 21
-395.9337013996874
 31
0.0
  0
LINE
  5
9E
330
70
100
AcDbEntity
  8
Layer 1
 62
   250
420
  2301728
370
    35
100
AcDbLine
 10
256.8549402329427
 20
-389.8962619465483
 30
0.0
 11
256.8549402329427
 21
-387.8962619465483
 31
0.0
  0
LINE
  5
9F
330
70
100
AcDbEntity
  8
Layer 1
 62
   250
420
  2301728
370
    35
100
AcDbLine
 10
254.1866262062649
 20
-390.8680415801118
 30
0.0
 11
252.7724126438916
 21
-389.4538280177385
 31
0.0
  0
LINE
  5
A0
330
70
100
AcDbEntity
  8
Layer 1
 62
   250
420
  2301728
370
    35
100
AcDbLine
 10
259.3309737937352
 20
-390.8680415801118
 30
0.0
 11
260.7451873561085
 21
-389.4538280177385
 31
0.0
  0
ENDSEC
  0
SECTION
  2
OBJECTS
  0
DICTIONARY
  5
C
330
0
100
AcDbDictionary
281
     1
  3
ACAD_COLOR
350
63
  3
ACAD_DETAILVIEWSTYLE
350
6A
  3
ACAD_GROUP
350
D
  3
ACAD_LAYOUT
350
62
  3
ACAD_MATERIAL
350
10
  3
ACAD_MLEADERSTYLE
350
66
  3
ACAD_MLINESTYLE
350
5F
  3
ACAD_PLOTSETTINGS
350
61
  3
ACAD_PLOTSTYLENAME
350
E
  3
ACAD_SCALELIST
350
42
  3
ACAD_SECTIONVIEWSTYLE
350
68
  3
ACAD_TABLESTYLE
350
64
  3
ACAD_VISUALSTYLE
350
29
  3
ACDB_RECOMPOSE_DATA
350
A9
  3
AcDbVariableDictionary
350
A1
  0
DICTIONARY
  5
63
102
{ACAD_REACTORS
330
C
102
}
330
C
100
AcDbDictionary
281
     1
  0
DICTIONARY
  5
6A
102
{ACAD_REACTORS
330
C
102
}
330
C
100
AcDbDictionary
281
     1
  3
Imperial24
350
6B
  0
DICTIONARY
  5
D
102
{ACAD_REACTORS
330
C
102
}
330
C
100
AcDbDictionary
281
     1
  0
DICTIONARY
  5
62
102
{ACAD_REACTORS
330
C
102
}
330
C
100
AcDbDictionary
281
     1
  3
Layout1
350
6F
  3
Layout2
350
77
  3
Model
350
73
  0
DICTIONARY
  5
10
102
{ACAD_REACTORS
330
C
102
}
330
C
100
AcDbDictionary
281
     1
  3
ByBlock
350
19
  3
ByLayer
350
11
  3
Global
350
21
  0
DICTIONARY
  5
66
102
{ACAD_REACTORS
330
C
102
}
330
C
100
AcDbDictionary
281
     1
  3
Standard
350
67
  0
DICTIONARY
  5
5F
102
{ACAD_REACTORS
330
C
102
}
330
C
100
AcDbDictionary
281
     1
  3
Standard
350
60
  0
DICTIONARY
  5
61
102
{ACAD_REACTORS
330
C
102
}
330
C
100
AcDbDictionary
281
     1
  0
ACDBDICTIONARYWDFLT
  5
E
102
{ACAD_REACTORS
330
C
102
}
330
C
100
AcDbDictionary
281
     1
  3
Normal
350
F
100
AcDbDictionaryWithDefault
340
F
  0
DICTIONARY
  5
42
102
{ACAD_REACTORS
330
C
102
}
330
C
100
AcDbDictionary
281
     1
  3
A0
350
43
  3
A1
350
44
  3
A2
350
45
  3
A3
350
46
  3
A4
350
47
  3
A5
350
48
  3
A6
350
49
  3
A7
350
4A
  3
A8
350
4B
  3
A9
350
4C
  3
B0
350
4D
  3
B1
350
4E
  3
B2
350
4F
  3
B3
350
50
  3
B4
350
51
  3
B5
350
52
  3
B6
350
53
  0
DICTIONARY
  5
68
102
{ACAD_REACTORS
330
C
102
}
330
C
100
AcDbDictionary
281
     1
  3
Imperial24
350
69
  0
DICTIONARY
  5
64
102
{ACAD_REACTORS
330
C
102
}
330
C
100
AcDbDictionary
281
     1
  3
Standard
350
65
  0
DICTIONARY
  5
29
102
{ACAD_REACTORS
330
C
102
}
330
C
100
AcDbDictionary
281
     1
  3
2dWireframe
350
2F
  3
Basic
350
2E
  3
Brighten
350
35
  3
ColorChange
350
39
  3
Conceptual
350
32
  3
Dim
350
34
  3
EdgeColorOff
350
41
  3
Facepattern
350
38
  3
Flat
350
2A
  3
FlatWithEdges
350
2B
  3
Gouraud
350
2C
  3
GouraudWithEdges
350
2D
  3
Hidden
350
31
  3
JitterOff
350
3F
  3
Linepattern
350
37
  3
OverhangOff
350
40
  3
Realistic
350
33
  3
Shaded
350
3E
  3
Shaded with edges
350
3D
  3
Shades of Gray
350
3A
  3
Sketchy
350
3B
  3
Thicken
350
36
  3
Wireframe
350
30
  3
X-Ray
350
3C
  0
XRECORD
  5
A9
102
{ACAD_REACTORS
330
C
102
}
330
C
100
AcDbXrecord
280
     1
 90
        1
330
65
  0
DICTIONARY
  5
A1
102
{ACAD_REACTORS
330
C
102
}
330
C
100
AcDbDictionary
281
     1
  3
CANNOSCALE
350
A6
  3
CMLEADERSTYLE
350
A3
  3
CTABLESTYLE
350
A2
  3
CVIEWDETAILSTYLE
350
A4
  3
CVIEWSECTIONSTYLE
350
A5
  0
ACDBDETAILVIEWSTYLE
  5
6B
102
{ACAD_XDICTIONARY
360
DE
102
}
102
{ACAD_REACTORS
330
6A
102
}
330
6A
100
AcDbModelDocViewStyle
 70
     0
  3
Imperial24
290
     0
100
AcDbDetailViewStyle
 70
     0
 71
     0
 90
        3
 71
     1
340
55
 62
   256
 40
0.24
340
0
 62
   256
 40
0.24
300

 40
0.36
280
     3
 71
     2
340
5D
 90
       25
 62
   256
 71
     3
340
55
 62
   256
 40
0.24
 90
        1
 40
0.75
 90
        1
300
%<\AcVar ViewType \f "%tc1">% %<\AcVar ViewDetailId>%\PSCALE %<\AcVar ViewScale \f "%sn">%
 71
     4
340
5D
 90
       25
 62
   256
340
5D
 90
       25
 62
   256
280
     0
  0
LAYOUT
  5
6F
102
{ACAD_REACTORS
330
62
102
}
330
62
100
AcDbPlotSettings
  1

  2

  4

  6

 40
0.0
 41
0.0
 42
0.0
 43
0.0
 44
0.0
 45
0.0
 46
0.0
 47
0.0
 48
0.0
 49
0.0
140
0.0
141
0.0
142
1.0
143
1.0
 70
   688
 72
     0
 73
     0
 74
     5
  7

 75
    16
147
1.0
 76
     0
 77
     2
 78
   300
148
0.0
149
0.0
100
AcDbLayout
  1
Layout1
 70
     1
 71
     1
 10
0.0
 20
0.0
 11
12.0
 21
9.0
 12
0.0
 22
0.0
 32
0.0
 14
0.0
 24
0.0
 34
0.0
 15
0.0
 25
0.0
 35
0.0
146
0.0
 13
0.0
 23
0.0
 33
0.0
 16
1.0
 26
0.0
 36
0.0
 17
0.0
 27
1.0
 37
0.0
 76
     0
330
6C
  0
LAYOUT
  5
77
102
{ACAD_REACTORS
330
62
102
}
330
62
100
AcDbPlotSettings
  1

  2

  4

  6

 40
0.0
 41
0.0
 42
0.0
 43
0.0
 44
0.0
 45
0.0
 46
0.0
 47
0.0
 48
0.0
 49
0.0
140
0.0
141
0.0
142
1.0
143
1.0
 70
   688
 72
     0
 73
     0
 74
     5
  7

 75
    16
147
1.0
 76
     0
 77
     2
 78
   300
148
0.0
149
0.0
100
AcDbLayout
  1
Layout2
 70
     1
 71
     2
 10
0.0
 20
0.0
 11
12.0
 21
9.0
 12
0.0
 22
0.0
 32
0.0
 14
0.0
 24
0.0
 34
0.0
 15
0.0
 25
0.0
 35
0.0
146
0.0
 13
0.0
 23
0.0
 33
0.0
 16
1.0
 26
0.0
 36
0.0
 17
0.0
 27
1.0
 37
0.0
 76
     0
330
74
  0
LAYOUT
  5
73
102
{ACAD_REACTORS
330
62
102
}
330
62
100
AcDbPlotSettings
  1

  2

  4

  6

 40
0.0
 41
0.0
 42
0.0
 43
0.0
 44
0.0
 45
0.0
 46
0.0
 47
0.0
 48
0.0
 49
0.0
140
0.0
141
0.0
142
1.0
143
1.0
 70
  1712
 72
     0
 73
     0
 74
     0
  7

 75
     0
147
1.0
 76
     0
 77
     2
 78
   300
148
0.0
149
0.0
100
AcDbLayout
  1
Model
 70
     1
 71
     0
 10
0.0
 20
0.0
 11
12.0
 21
9.0
 12
0.0
 22
0.0
 32
0.0
 14
0.0
 24
0.0
 34
0.0
 15
0.0
 25
0.0
 35
0.0
146
0.0
 13
0.0
 23
0.0
 33
0.0
 16
1.0
 26
0.0
 36
0.0
 17
0.0
 27
1.0
 37
0.0
 76
     0
330
70
  0
MATERIAL
  5
19
102
{ACAD_XDICTIONARY
360
1A
102
}
102
{ACAD_REACTORS
330
10
102
}
330
10
100
AcDbMaterial
  1
ByBlock
 72
     0
 43
0.0208333333333333
 43
0.0
 43
0.0
 43
0.0
 43
0.0
 43
0.0208333333333333
 43
0.0
 43
0.0
 43
0.0
 43
0.0
 43
1.0
 43
0.0
 43
0.0
 43
0.0
 43
0.0
 43
1.0
 77
     0
 47
0.0208333333333333
 47
0.0
 47
0.0
 47
0.0
 47
0.0
 47
0.0208333333333333
 47
0.0
 47
0.0
 47
0.0
 47
0.0
 47
1.0
 47
0.0
 47
0.0
 47
0.0
 47
0.0
 47
1.0
171
     0
 49
0.0208333333333333
 49
0.0
 49
0.0
 49
0.0
 49
0.0
 49
0.0208333333333333
 49
0.0
 49
0.0
 49
0.0
 49
0.0
 49
1.0
 49
0.0
 49
0.0
 49
0.0
 49
0.0
 49
1.0
175
     0
142
0.0208333333333333
142
0.0
142
0.0
142
0.0
142
0.0
142
0.0208333333333333
142
0.0
142
0.0
142
0.0
142
0.0
142
1.0
142
0.0
142
0.0
142
0.0
142
0.0
142
1.0
179
     0
144
0.0208333333333333
144
0.0
144
0.0
144
0.0
144
0.0
144
0.0208333333333333
144
0.0
144
0.0
144
0.0
144
0.0
144
1.0
144
0.0
144
0.0
144
0.0
144
0.0
144
1.0
147
0.0208333333333333
147
0.0
147
0.0
147
0.0
147
0.0
147
0.0208333333333333
147
0.0
147
0.0
147
0.0
147
0.0
147
1.0
147
0.0
147
0.0
147
0.0
147
0.0
147
1.0
  0
MATERIAL
  5
11
102
{ACAD_XDICTIONARY
360
12
102
}
102
{ACAD_REACTORS
330
10
102
}
330
10
100
AcDbMaterial
  1
ByLayer
 72
     0
 43
0.0208333333333333
 43
0.0
 43
0.0
 43
0.0
 43
0.0
 43
0.0208333333333333
 43
0.0
 43
0.0
 43
0.0
 43
0.0
 43
1.0
 43
0.0
 43
0.0
 43
0.0
 43
0.0
 43
1.0
 77
     0
 47
0.0208333333333333
 47
0.0
 47
0.0
 47
0.0
 47
0.0
 47
0.0208333333333333
 47
0.0
 47
0.0
 47
0.0
 47
0.0
 47
1.0
 47
0.0
 47
0.0
 47
0.0
 47
0.0
 47
1.0
171
     0
 49
0.0208333333333333
 49
0.0
 49
0.0
 49
0.0
 49
0.0
 49
0.0208333333333333
 49
0.0
 49
0.0
 49
0.0
 49
0.0
 49
1.0
 49
0.0
 49
0.0
 49
0.0
 49
0.0
 49
1.0
175
     0
142
0.0208333333333333
142
0.0
142
0.0
142
0.0
142
0.0
142
0.0208333333333333
142
0.0
142
0.0
142
0.0
142
0.0
142
1.0
142
0.0
142
0.0
142
0.0
142
0.0
142
1.0
179
     0
144
0.0208333333333333
144
0.0
144
0.0
144
0.0
144
0.0
144
0.0208333333333333
144
0.0
144
0.0
144
0.0
144
0.0
144
1.0
144
0.0
144
0.0
144
0.0
144
0.0
144
1.0
147
0.0208333333333333
147
0.0
147
0.0
147
0.0
147
0.0
147
0.0208333333333333
147
0.0
147
0.0
147
0.0
147
0.0
147
1.0
147
0.0
147
0.0
147
0.0
147
0.0
147
1.0
  0
MATERIAL
  5
21
102
{ACAD_XDICTIONARY
360
22
102
}
102
{ACAD_REACTORS
330
10
102
}
330
10
100
AcDbMaterial
  1
Global
 72
     0
 43
0.0208333333333333
 43
0.0
 43
0.0
 43
0.0
 43
0.0
 43
0.0208333333333333
 43
0.0
 43
0.0
 43
0.0
 43
0.0
 43
1.0
 43
0.0
 43
0.0
 43
0.0
 43
0.0
 43
1.0
 77
     0
 47
0.0208333333333333
 47
0.0
 47
0.0
 47
0.0
 47
0.0
 47
0.0208333333333333
 47
0.0
 47
0.0
 47
0.0
 47
0.0
 47
1.0
 47
0.0
 47
0.0
 47
0.0
 47
0.0
 47
1.0
171
     0
 49
0.0208333333333333
 49
0.0
 49
0.0
 49
0.0
 49
0.0
 49
0.0208333333333333
 49
0.0
 49
0.0
 49
0.0
 49
0.0
 49
1.0
 49
0.0
 49
0.0
 49
0.0
 49
0.0
 49
1.0
175
     0
142
0.0208333333333333
142
0.0
142
0.0
142
0.0
142
0.0
142
0.0208333333333333
142
0.0
142
0.0
142
0.0
142
0.0
142
1.0
142
0.0
142
0.0
142
0.0
142
0.0
142
1.0
179
     0
144
0.0208333333333333
144
0.0
144
0.0
144
0.0
144
0.0
144
0.0208333333333333
144
0.0
144
0.0
144
0.0
144
0.0
144
1.0
144
0.0
144
0.0
144
0.0
144
0.0
144
1.0
147
0.0208333333333333
147
0.0
147
0.0
147
0.0
147
0.0
147
0.0208333333333333
147
0.0
147
0.0
147
0.0
147
0.0
147
1.0
147
0.0
147
0.0
147
0.0
147
0.0
147
1.0
  0
MLEADERSTYLE
  5
67
102
{ACAD_XDICTIONARY
360
DA
102
}
102
{ACAD_REACTORS
330
66
102
}
330
66
100
AcDbMLeaderStyle
179
     2
170
     2
171
     1
172
     0
 90
        2
 40
0.0
 41
0.0
173
     1
 91
-1056964608
340
5B
 92
       -2
290
     1
 42
0.09
291
     1
 43
0.36
  3
Standard
 44
0.18
300

342
55
174
     1
178
     6
175
     1
176
     0
 93
-1056964608
 45
0.18
292
     0
297
     0
 46
0.18
 94
-1056964608
 47
1.0
 49
1.0
140
1.0
293
     1
141
0.0
294
     1
177
     0
142
1.0
295
     0
296
     0
143
0.125
271
     0
272
     9
273
     9
  0
MLINESTYLE
  5
60
102
{ACAD_REACTORS
330
5F
102
}
330
5F
100
AcDbMlineStyle
  2
STANDARD
 70
     0
  3

 62
   256
 51
90.0
 52
90.0
 71
     2
 49
0.5
 62
   256
  6
BYLAYER
 49
-0.5
 62
   256
  6
BYLAYER
  0
ACDBPLACEHOLDER
  5
F
102
{ACAD_REACTORS
330
E
102
}
330
E
  0
SCALE
  5
43
102
{ACAD_REACTORS
330
42
102
}
330
42
100
AcDbScale
 70
     0
300
1:1
140
1.0
141
1.0
290
     1
  0
SCALE
  5
44
102
{ACAD_REACTORS
330
42
102
}
330
42
100
AcDbScale
 70
     0
300
1/128" = 1'-0"
140
0.0078125
141
12.0
290
     0
  0
SCALE
  5
45
102
{ACAD_REACTORS
330
42
102
}
330
42
100
AcDbScale
 70
     0
300
1/64" = 1'-0"
140
0.015625
141
12.0
290
     0
  0
SCALE
  5
46
102
{ACAD_REACTORS
330
42
102
}
330
42
100
AcDbScale
 70
     0
300
1/32" = 1'-0"
140
0.03125
141
12.0
290
     0
  0
SCALE
  5
47
102
{ACAD_REACTORS
330
42
102
}
330
42
100
AcDbScale
 70
     0
300
1/16" = 1'-0"
140
0.0625
141
12.0
290
     0
  0
SCALE
  5
48
102
{ACAD_REACTORS
330
42
102
}
330
42
100
AcDbScale
 70
     0
300
3/32" = 1'-0"
140
0.09375
141
12.0
290
     0
  0
SCALE
  5
49
102
{ACAD_REACTORS
330
42
102
}
330
42
100
AcDbScale
 70
     0
300
1/8" = 1'-0"
140
0.125
141
12.0
290
     0
  0
SCALE
  5
4A
102
{ACAD_REACTORS
330
42
102
}
330
42
100
AcDbScale
 70
     0
300
3/16" = 1'-0"
140
0.1875
141
12.0
290
     0
  0
SCALE
  5
4B
102
{ACAD_REACTORS
330
42
102
}
330
42
100
AcDbScale
 70
     0
300
1/4" = 1'-0"
140
0.25
141
12.0
290
     0
  0
SCALE
  5
4C
102
{ACAD_REACTORS
330
42
102
}
330
42
100
AcDbScale
 70
     0
300
3/8" = 1'-0"
140
0.375
141
12.0
290
     0
  0
SCALE
  5
4D
102
{ACAD_REACTORS
330
42
102
}
330
42
100
AcDbScale
 70
     0
300
1/2" = 1'-0"
140
0.5
141
12.0
290
     0
  0
SCALE
  5
4E
102
{ACAD_REACTORS
330
42
102
}
330
42
100
AcDbScale
 70
     0
300
3/4" = 1'-0"
140
0.75
141
12.0
290
     0
  0
SCALE
  5
4F
102
{ACAD_REACTORS
330
42
102
}
330
42
100
AcDbScale
 70
     0
300
1" = 1'-0"
140
1.0
141
12.0
290
     0
  0
SCALE
  5
50
102
{ACAD_REACTORS
330
42
102
}
330
42
100
AcDbScale
 70
     0
300
1-1/2" = 1'-0"
140
1.5
141
12.0
290
     0
  0
SCALE
  5
51
102
{ACAD_REACTORS
330
42
102
}
330
42
100
AcDbScale
 70
     0
300
3" = 1'-0"
140
3.0
141
12.0
290
     0
  0
SCALE
  5
52
102
{ACAD_REACTORS
330
42
102
}
330
42
100
AcDbScale
 70
     0
300
6" = 1'-0"
140
6.0
141
12.0
290
     0
  0
SCALE
  5
53
102
{ACAD_REACTORS
330
42
102
}
330
42
100
AcDbScale
 70
     0
300
1'-0" = 1'-0"
140
12.0
141
12.0
290
     0
  0
ACDBSECTIONVIEWSTYLE
  5
69
102
{ACAD_XDICTIONARY
360
DC
102
}
102
{ACAD_REACTORS
330
68
102
}
330
68
100
AcDbModelDocViewStyle
 70
     0
  3
Imperial24
290
     0
100
AcDbSectionViewStyle
 70
     0
 71
     0
 90
       78
 71
     1
340
55
 62
   256
 40
0.24
340
0
340
0
 62
   256
 40
0.24
300
I, O, Q, S, X, Z
 40
0.48
 90
        3
 40
0.18
 90
        1
 71
     2
340
5D
 90
       25
 62
   256
340
5D
 90
       50
 62
   256
 40
0.24
 40
0.0
 40
0.24
 71
     3
340
55
 62
   256
 40
0.24
 90
        1
 40
0.75
 90
        1
300
%<\AcVar ViewType \f "%tc1">% %<\AcVar ViewSectionStartId>%-%<\AcVar ViewSectionEndId>%\PSCALE %<\AcVar ViewScale \f "%sn">%
 71
     4
 62
   256
 62
   257
300
ANSI31
 40
1.0
 90
        0
290
     0
290
     0
 90
        6
 40
0.0
 40
1.570796326794896
 40
0.2617993877991494
 40
1.308996938995747
 40
-0.2617993877991494
 40
1.832595714594046
  0
TABLESTYLE
  5
65
102
{ACAD_XDICTIONARY
360
A7
102
}
102
{ACAD_REACTORS
330
64
102
}
330
64
100
AcDbTableStyle
280
     0
  3
Standard
 70
     0
 71
     0
 40
0.06
 41
0.06
280
     0
281
     0
  7
Standard
140
0.18
170
     2
 62
     0
 63
     7
283
     0
 90
      512
 91
        0
  1

274
    -2
284
     1
 64
     0
275
    -2
285
     1
 65
     0
276
    -2
286
     1
 66
     0
277
    -2
287
     1
 67
     0
278
    -2
288
     1
 68
     0
279
    -2
289
     1
 69
     0
  7
Standard
140
0.25
170
     5
 62
     0
 63
     7
283
     0
 90
      512
 91
        0
  1

274
    -2
284
     1
 64
     0
275
    -2
285
     1
 65
     0
276
    -2
286
     1
 66
     0
277
    -2
287
     1
 67
     0
278
    -2
288
     1
 68
     0
279
    -2
289
     1
 69
     0
  7
Standard
140
0.18
170
     5
 62
     0
 63
     7
283
     0
 90
      512
 91
        0
  1

274
    -2
284
     1
 64
     0
275
    -2
285
     1
 65
     0
276
    -2
286
     1
 66
     0
277
    -2
287
     1
 67
     0
278
    -2
288
     1
 68
     0
279
    -2
289
     1
 69
     0
  0
VISUALSTYLE
  5
2F
102
{ACAD_XDICTIONARY
360
B4
102
}
102
{ACAD_REACTORS
330
29
102
}
330
29
100
AcDbVisualStyle
  2
2dWireframe
 70
     4
177
     2
291
     0
 71
     0
176
     1
 72
     2
176
     1
 73
     0
176
     1
 90
        0
176
     1
 40
0.6
176
     1
 41
30.0
176
     1
 63
     7
421
 16777215
176
     1
 74
     1
176
     1
 91
        4
176
     1
 64
     7
176
     1
 65
   257
176
     1
 75
     1
176
     1
175
     1
176
     1
 42
1.0
176
     1
 92
        0
176
     1
 66
   257
176
     1
 43
1.0
176
     1
 76
     1
176
     1
 77
     6
176
     1
 78
     2
176
     1
 67
     7
176
     1
 79
     5
176
     1
170
     0
176
     1
171
     0
176
     1
290
     0
176
     1
 93
        1
176
     1
 44
0.0
176
     1
173
     0
176
     1
1001
ACAD
1000
AcDbSavedByObjectVersion
1070
     0
  0
VISUALSTYLE
  5
2E
102
{ACAD_XDICTIONARY
360
B2
102
}
102
{ACAD_REACTORS
330
29
102
}
330
29
100
AcDbVisualStyle
  2
Basic
 70
     7
177
     2
291
     1
 71
     1
176
     1
 72
     0
176
     1
 73
     1
176
     1
 90
        0
176
     1
 40
0.6
176
     1
 41
30.0
176
     1
 63
     7
421
 16777215
176
     1
 74
     0
176
     1
 91
        4
176
     1
 64
     7
176
     1
 65
   257
176
     1
 75
     1
176
     1
175
     1
176
     1
 42
1.0
176
     1
 92
        8
176
     1
 66
     7
176
     1
 43
1.0
176
     1
 76
     1
176
     1
 77
     6
176
     1
 78
     2
176
     1
 67
     7
176
     1
 79
     5
176
     1
170
     0
176
     1
171
     0
176
     1
290
     0
176
     1
 93
        1
176
     1
 44
0.0
176
     1
173
     0
176
     1
1001
ACAD
1000
AcDbSavedByObjectVersion
1070
     0
  0
VISUALSTYLE
  5
35
102
{ACAD_XDICTIONARY
360
C0
102
}
102
{ACAD_REACTORS
330
29
102
}
330
29
100
AcDbVisualStyle
  2
Brighten
 70
    12
177
     2
291
     1
 71
     2
176
     1
 72
     2
176
     1
 73
     0
176
     1
 90
        0
176
     1
 40
0.6
176
     1
 41
30.0
176
     1
 63
     7
421
 16777215
176
     1
 74
     1
176
     1
 91
        4
176
     1
 64
     7
176
     1
 65
   257
176
     1
 75
     1
176
     1
175
     1
176
     1
 42
1.0
176
     1
 92
        8
176
     1
 66
     7
176
     1
 43
1.0
176
     1
 76
     1
176
     1
 77
     6
176
     1
 78
     2
176
     1
 67
     7
176
     1
 79
     5
176
     1
170
     0
176
     1
171
     0
176
     1
290
     0
176
     1
 93
        1
176
     1
 44
50.0
176
     1
173
     0
176
     1
1001
ACAD
1000
AcDbSavedByObjectVersion
1070
     0
  0
VISUALSTYLE
  5
39
102
{ACAD_XDICTIONARY
360
C8
102
}
102
{ACAD_REACTORS
330
29
102
}
330
29
100
AcDbVisualStyle
  2
ColorChange
 70
    16
177
     2
291
     1
 71
     2
176
     1
 72
     2
176
     1
 73
     3
176
     1
 90
        0
176
     1
 40
0.6
176
     1
 41
30.0
176
     1
 63
     8
421
  8421504
176
     1
 74
     1
176
     1
 91
        4
176
     1
 64
     7
176
     1
 65
   257
176
     1
 75
     1
176
     1
175
     1
176
     1
 42
1.0
176
     1
 92
        8
176
     1
 66
     8
424
  8421504
176
     1
 43
1.0
176
     1
 76
     1
176
     1
 77
     6
176
     1
 78
     2
176
     1
 67
     7
176
     1
 79
     5
176
     1
170
     0
176
     1
171
     0
176
     1
290
     0
176
     1
 93
        1
176
     1
 44
0.0
176
     1
173
     0
176
     1
1001
ACAD
1000
AcDbSavedByObjectVersion
1070
     0
  0
VISUALSTYLE
  5
32
102
{ACAD_XDICTIONARY
360
BA
102
}
102
{ACAD_REACTORS
330
29
102
}
330
29
100
AcDbVisualStyle
  2
Conceptual
 70
     9
177
     2
291
     0
 71
     3
176
     1
 72
     2
176
     1
 73
     0
176
     1
 90
        0
176
     1
 40
0.6
176
     1
 41
30.0
176
     1
 63
     7
421
 16777215
176
     1
 74
     2
176
     1
 91
        2
176
     1
 64
     7
176
     1
 65
   257
176
     1
 75
     1
176
     1
175
     1
176
     1
 42
179.0
176
     1
 92
        8
176
     1
 66
     7
176
     1
 43
1.0
176
     1
 76
     1
176
     1
 77
     6
176
     1
 78
     2
176
     1
 67
     7
176
     1
 79
     3
176
     1
170
     0
176
     1
171
     0
176
     1
290
     0
176
     1
 93
        1
176
     1
 44
0.0
176
     1
173
     0
176
     1
1001
ACAD
1000
AcDbSavedByObjectVersion
1070
     0
  0
VISUALSTYLE
  5
34
102
{ACAD_XDICTIONARY
360
BE
102
}
102
{ACAD_REACTORS
330
29
102
}
330
29
100
AcDbVisualStyle
  2
Dim
 70
    11
177
     2
291
     1
 71
     2
176
     1
 72
     2
176
     1
 73
     0
176
     1
 90
        0
176
     1
 40
0.6
176
     1
 41
30.0
176
     1
 63
     7
421
 16777215
176
     1
 74
     1
176
     1
 91
        4
176
     1
 64
     7
176
     1
 65
   257
176
     1
 75
     1
176
     1
175
     1
176
     1
 42
1.0
176
     1
 92
        8
176
     1
 66
     7
176
     1
 43
1.0
176
     1
 76
     1
176
     1
 77
     6
176
     1
 78
     2
176
     1
 67
     7
176
     1
 79
     5
176
     1
170
     0
176
     1
171
     0
176
     1
290
     0
176
     1
 93
        1
176
     1
 44
-50.0
176
     1
173
     0
176
     1
1001
ACAD
1000
AcDbSavedByObjectVersion
1070
     0
  0
VISUALSTYLE
  5
41
102
{ACAD_XDICTIONARY
360
D8
102
}
102
{ACAD_REACTORS
330
29
102
}
330
29
100
AcDbVisualStyle
  2
EdgeColorOff
 70
    22
177
     2
291
     1
 71
     2
176
     0
 72
     2
176
     0
 73
     0
176
     0
 90
        0
176
     0
 40
0.6
176
     0
 41
30.0
176
     0
 63
     7
421
 16777215
176
     0
 74
     1
176
     0
 91
        4
176
     0
 64
     7
176
     0
 65
   257
176
     0
 75
     1
176
     0
175
     1
176
     0
 42
1.0
176
     0
 92
        8
176
     2
 66
     7
176
     0
 43
1.0
176
     0
 76
     1
176
     0
 77
     6
176
     0
 78
     2
176
     0
 67
     7
176
     0
 79
     5
176
     0
170
     0
176
     0
171
     0
176
     0
290
     0
176
     0
 93
        1
176
     0
 44
0.0
176
     0
173
     0
176
     0
1001
ACAD
1000
AcDbSavedByObjectVersion
1070
     0
  0
VISUALSTYLE
  5
38
102
{ACAD_XDICTIONARY
360
C6
102
}
102
{ACAD_REACTORS
330
29
102
}
330
29
100
AcDbVisualStyle
  2
Facepattern
 70
    15
177
     2
291
     1
 71
     2
176
     1
 72
     2
176
     1
 73
     0
176
     1
 90
        0
176
     1
 40
0.6
176
     1
 41
30.0
176
     1
 63
     7
421
 16777215
176
     1
 74
     1
176
     1
 91
        4
176
     1
 64
     7
176
     1
 65
   257
176
     1
 75
     1
176
     1
175
     1
176
     1
 42
1.0
176
     1
 92
        8
176
     1
 66
     7
176
     1
 43
1.0
176
     1
 76
     1
176
     1
 77
     6
176
     1
 78
     2
176
     1
 67
     7
176
     1
 79
     5
176
     1
170
     0
176
     1
171
     0
176
     1
290
     0
176
     1
 93
        1
176
     1
 44
0.0
176
     1
173
     0
176
     1
1001
ACAD
1000
AcDbSavedByObjectVersion
1070
     0
  0
VISUALSTYLE
  5
2A
102
{ACAD_XDICTIONARY
360
AA
102
}
102
{ACAD_REACTORS
330
29
102
}
330
29
100
AcDbVisualStyle
  2
Flat
 70
     0
177
     2
291
     1
 71
     2
176
     1
 72
     1
176
     1
 73
     1
176
     1
 90
        2
176
     1
 40
0.6
176
     1
 41
30.0
176
     1
 63
     7
421
 16777215
176
     1
 74
     0
176
     1
 91
        0
176
     1
 64
     7
176
     1
 65
   257
176
     1
 75
     1
176
     1
175
     1
176
     1
 42
1.0
176
     1
 92
        8
176
     1
 66
     7
176
     1
 43
1.0
176
     1
 76
     1
176
     1
 77
     6
176
     1
 78
     2
176
     1
 67
     7
176
     1
 79
     5
176
     1
170
     0
176
     1
171
     0
176
     1
290
     0
176
     1
 93
       13
176
     1
 44
0.0
176
     1
173
     0
176
     1
1001
ACAD
1000
AcDbSavedByObjectVersion
1070
     0
  0
VISUALSTYLE
  5
2B
102
{ACAD_XDICTIONARY
360
AC
102
}
102
{ACAD_REACTORS
330
29
102
}
330
29
100
AcDbVisualStyle
  2
FlatWithEdges
 70
     1
177
     2
291
     1
 71
     2
176
     1
 72
     1
176
     1
 73
     1
176
     1
 90
        2
176
     1
 40
0.6
176
     1
 41
30.0
176
     1
 63
     7
421
 16777215
176
     1
 74
     1
176
     1
 91
        0
176
     1
 64
     7
176
     1
 65
   257
176
     1
 75
     1
176
     1
175
     1
176
     1
 42
1.0
176
     1
 92
        0
176
     1
 66
   257
176
     1
 43
1.0
176
     1
 76
     1
176
     1
 77
     6
176
     1
 78
     2
176
     1
 67
     7
176
     1
 79
     5
176
     1
170
     0
176
     1
171
     0
176
     1
290
     0
176
     1
 93
       13
176
     1
 44
0.0
176
     1
173
     0
176
     1
1001
ACAD
1000
AcDbSavedByObjectVersion
1070
     0
  0
VISUALSTYLE
  5
2C
102
{ACAD_XDICTIONARY
360
AE
102
}
102
{ACAD_REACTORS
330
29
102
}
330
29
100
AcDbVisualStyle
  2
Gouraud
 70
     2
177
     2
291
     1
 71
     2
176
     1
 72
     2
176
     1
 73
     1
176
     1
 90
        2
176
     1
 40
0.6
176
     1
 41
30.0
176
     1
 63
     7
421
 16777215
176
     1
 74
     0
176
     1
 91
        0
176
     1
 64
     7
176
     1
 65
   257
176
     1
 75
     1
176
     1
175
     1
176
     1
 42
1.0
176
     1
 92
        0
176
     1
 66
     7
176
     1
 43
1.0
176
     1
 76
     1
176
     1
 77
     6
176
     1
 78
     2
176
     1
 67
     7
176
     1
 79
     5
176
     1
170
     0
176
     1
171
     0
176
     1
290
     0
176
     1
 93
       13
176
     1
 44
0.0
176
     1
173
     0
176
     1
1001
ACAD
1000
AcDbSavedByObjectVersion
1070
     0
  0
VISUALSTYLE
  5
2D
102
{ACAD_XDICTIONARY
360
B0
102
}
102
{ACAD_REACTORS
330
29
102
}
330
29
100
AcDbVisualStyle
  2
GouraudWithEdges
 70
     3
177
     2
291
     1
 71
     2
176
     1
 72
     2
176
     1
 73
     1
176
     1
 90
        2
176
     1
 40
0.6
176
     1
 41
30.0
176
     1
 63
     7
421
 16777215
176
     1
 74
     1
176
     1
 91
        0
176
     1
 64
     7
176
     1
 65
   257
176
     1
 75
     1
176
     1
175
     1
176
     1
 42
1.0
176
     1
 92
        0
176
     1
 66
   257
176
     1
 43
1.0
176
     1
 76
     1
176
     1
 77
     6
176
     1
 78
     2
176
     1
 67
     7
176
     1
 79
     5
176
     1
170
     0
176
     1
171
     0
176
     1
290
     0
176
     1
 93
       13
176
     1
 44
0.0
176
     1
173
     0
176
     1
1001
ACAD
1000
AcDbSavedByObjectVersion
1070
     0
  0
VISUALSTYLE
  5
31
102
{ACAD_XDICTIONARY
360
B8
102
}
102
{ACAD_REACTORS
330
29
102
}
330
29
100
AcDbVisualStyle
  2
Hidden
 70
     6
177
     2
291
     0
 71
     1
176
     1
 72
     2
176
     1
 73
     2
176
     1
 90
        0
176
     1
 40
0.6
176
     1
 41
30.0
176
     1
 63
     7
421
 16777215
176
     1
 74
     2
176
     1
 91
        2
176
     1
 64
     7
176
     1
 65
   257
176
     1
 75
     2
176
     1
175
     1
176
     1
 42
40.0
176
     1
 92
        0
176
     1
 66
   257
176
     1
 43
1.0
176
     1
 76
     1
176
     1
 77
     6
176
     1
 78
     2
176
     1
 67
     7
176
     1
 79
     3
176
     1
170
     0
176
     1
171
     0
176
     1
290
     0
176
     1
 93
        1
176
     1
 44
0.0
176
     1
173
     0
176
     1
1001
ACAD
1000
AcDbSavedByObjectVersion
1070
     0
  0
VISUALSTYLE
  5
3F
102
{ACAD_XDICTIONARY
360
D4
102
}
102
{ACAD_REACTORS
330
29
102
}
330
29
100
AcDbVisualStyle
  2
JitterOff
 70
    20
177
     2
291
     1
 71
     2
176
     0
 72
     2
176
     0
 73
     0
176
     0
 90
        0
176
     0
 40
0.6
176
     0
 41
30.0
176
     0
 63
     7
421
 16777215
176
     0
 74
     1
176
     0
 91
        4
176
     0
 64
     7
176
     0
 65
   257
176
     0
 75
     1
176
     0
175
     1
176
     0
 42
1.0
176
     0
 92
       10
176
     2
 66
     7
176
     0
 43
1.0
176
     0
 76
     1
176
     0
 77
     6
176
     0
 78
     2
176
     0
 67
     7
176
     0
 79
     5
176
     0
170
     0
176
     0
171
     0
176
     0
290
     0
176
     0
 93
        1
176
     0
 44
0.0
176
     0
173
     0
176
     0
1001
ACAD
1000
AcDbSavedByObjectVersion
1070
     0
  0
VISUALSTYLE
  5
37
102
{ACAD_XDICTIONARY
360
C4
102
}
102
{ACAD_REACTORS
330
29
102
}
330
29
100
AcDbVisualStyle
  2
Linepattern
 70
    14
177
     2
291
     1
 71
     2
176
     1
 72
     2
176
     1
 73
     0
176
     1
 90
        0
176
     1
 40
0.6
176
     1
 41
30.0
176
     1
 63
     7
421
 16777215
176
     1
 74
     1
176
     1
 91
        4
176
     1
 64
     7
176
     1
 65
   257
176
     1
 75
     7
176
     1
175
     7
176
     1
 42
1.0
176
     1
 92
        8
176
     1
 66
     7
176
     1
 43
1.0
176
     1
 76
     1
176
     1
 77
     6
176
     1
 78
     2
176
     1
 67
     7
176
     1
 79
     5
176
     1
170
     0
176
     1
171
     0
176
     1
290
     0
176
     1
 93
        1
176
     1
 44
0.0
176
     1
173
     0
176
     1
1001
ACAD
1000
AcDbSavedByObjectVersion
1070
     0
  0
VISUALSTYLE
  5
40
102
{ACAD_XDICTIONARY
360
D6
102
}
102
{ACAD_REACTORS
330
29
102
}
330
29
100
AcDbVisualStyle
  2
OverhangOff
 70
    21
177
     2
291
     1
 71
     2
176
     0
 72
     2
176
     0
 73
     0
176
     0
 90
        0
176
     0
 40
0.6
176
     0
 41
30.0
176
     0
 63
     7
421
 16777215
176
     0
 74
     1
176
     0
 91
        4
176
     0
 64
     7
176
     0
 65
   257
176
     0
 75
     1
176
     0
175
     1
176
     0
 42
1.0
176
     0
 92
        9
176
     2
 66
     7
176
     0
 43
1.0
176
     0
 76
     1
176
     0
 77
     6
176
     0
 78
     2
176
     0
 67
     7
176
     0
 79
     5
176
     0
170
     0
176
     0
171
     0
176
     0
290
     0
176
     0
 93
        1
176
     0
 44
0.0
176
     0
173
     0
176
     0
1001
ACAD
1000
AcDbSavedByObjectVersion
1070
     0
  0
VISUALSTYLE
  5
33
102
{ACAD_XDICTIONARY
360
BC
102
}
102
{ACAD_REACTORS
330
29
102
}
330
29
100
AcDbVisualStyle
  2
Realistic
 70
     8
177
     2
291
     0
 71
     2
176
     1
 72
     3
176
     1
 73
     0
176
     1
 90
        2
176
     1
 40
0.6
176
     1
 41
30.0
176
     1
 63
     7
421
 16777215
176
     1
 74
     0
176
     1
 91
        0
176
     1
 64
     7
176
     1
 65
   257
176
     1
 75
     1
176
     1
175
     1
176
     1
 42
1.0
176
     1
 92
        8
176
     1
 66
   257
176
     1
 43
1.0
176
     1
 76
     1
176
     1
 77
     6
176
     1
 78
     2
176
     1
 67
     7
176
     1
 79
     3
176
     1
170
     0
176
     1
171
     0
176
     1
290
     0
176
     1
 93
       13
176
     1
 44
0.0
176
     1
173
     0
176
     1
1001
ACAD
1000
AcDbSavedByObjectVersion
1070
     0
  0
VISUALSTYLE
  5
3E
102
{ACAD_XDICTIONARY
360
D2
102
}
102
{ACAD_REACTORS
330
29
102
}
330
29
100
AcDbVisualStyle
  2
Shaded
 70
    27
177
     2
291
     0
 71
     2
176
     1
 72
     2
176
     1
 73
     1
176
     1
 90
        2
176
     1
 40
0.6
176
     1
 41
30.0
176
     1
 63
     7
421
 16777215
176
     1
 74
     0
176
     1
 91
        4
176
     1
 64
     7
176
     1
 65
   257
176
     1
 75
     1
176
     1
175
     1
176
     1
 42
1.0
176
     1
 92
        8
176
     1
 66
   257
176
     1
 43
1.0
176
     1
 76
     1
176
     1
 77
     6
176
     1
 78
     2
176
     1
 67
     8
425
  7895160
176
     1
 79
     3
176
     1
170
     0
176
     1
171
     0
176
     1
290
     0
176
     1
 93
        5
176
     1
 44
0.0
176
     1
173
     0
176
     1
1001
ACAD
1000
AcDbSavedByObjectVersion
1070
     0
  0
VISUALSTYLE
  5
3D
102
{ACAD_XDICTIONARY
360
D0
102
}
102
{ACAD_REACTORS
330
29
102
}
330
29
100
AcDbVisualStyle
  2
Shaded with edges
 70
    26
177
     2
291
     0
 71
     2
176
     1
 72
     2
176
     1
 73
     1
176
     1
 90
        2
176
     1
 40
0.6
176
     1
 41
30.0
176
     1
 63
     7
421
 16777215
176
     1
 74
     1
176
     1
 91
        2
176
     1
 64
     7
176
     1
 65
   257
176
     1
 75
     2
176
     1
175
     1
176
     1
 42
1.0
176
     1
 92
        8
176
     1
 66
   257
176
     1
 43
1.0
176
     1
 76
     1
176
     1
 77
     6
176
     1
 78
     2
176
     1
 67
     7
176
     1
 79
     3
176
     1
170
     0
176
     1
171
     0
176
     1
290
     0
176
     1
 93
        5
176
     1
 44
0.0
176
     1
173
     0
176
     1
1001
ACAD
1000
AcDbSavedByObjectVersion
1070
     0
  0
VISUALSTYLE
  5
3A
102
{ACAD_XDICTIONARY
360
CA
102
}
102
{ACAD_REACTORS
330
29
102
}
330
29
100
AcDbVisualStyle
  2
Shades of Gray
 70
    23
177
     2
291
     0
 71
     2
176
     1
 72
     2
176
     1
 73
     3
176
     1
 90
        0
176
     1
 40
0.6
176
     1
 41
30.0
176
     1
 63
     7
421
 16777215
176
     1
 74
     2
176
     1
 91
        2
176
     1
 64
     7
176
     1
 65
     7
176
     1
 75
     1
176
     1
175
     1
176
     1
 42
40.0
176
     1
 92
        8
176
     1
 66
     7
176
     1
 43
1.0
176
     1
 76
     1
176
     1
 77
     6
176
     1
 78
     2
176
     1
 67
     7
176
     1
 79
     3
176
     1
170
     0
176
     1
171
     0
176
     1
290
     0
176
     1
 93
        1
176
     1
 44
0.0
176
     1
173
     0
176
     1
1001
ACAD
1000
AcDbSavedByObjectVersion
1070
     0
  0
VISUALSTYLE
  5
3B
102
{ACAD_XDICTIONARY
360
CC
102
}
102
{ACAD_REACTORS
330
29
102
}
330
29
100
AcDbVisualStyle
  2
Sketchy
 70
    24
177
     2
291
     0
 71
     1
176
     1
 72
     2
176
     1
 73
     2
176
     1
 90
        0
176
     1
 40
0.6
176
     1
 41
30.0
176
     1
 63
     7
421
 16777215
176
     1
 74
     2
176
     1
 91
        2
176
     1
 64
     7
176
     1
 65
     7
176
     1
 75
     1
176
     1
175
     1
176
     1
 42
40.0
176
     1
 92
       11
176
     1
 66
     7
176
     1
 43
1.0
176
     1
 76
     1
176
     1
 77
     6
176
     1
 78
     2
176
     1
 67
     7
176
     1
 79
     6
176
     1
170
     0
176
     1
171
     0
176
     1
290
     0
176
     1
 93
        1
176
     1
 44
0.0
176
     1
173
     0
176
     1
1001
ACAD
1000
AcDbSavedByObjectVersion
1070
     0
  0
VISUALSTYLE
  5
36
102
{ACAD_XDICTIONARY
360
C2
102
}
102
{ACAD_REACTORS
330
29
102
}
330
29
100
AcDbVisualStyle
  2
Thicken
 70
    13
177
     2
291
     1
 71
     2
176
     1
 72
     2
176
     1
 73
     0
176
     1
 90
        0
176
     1
 40
0.6
176
     1
 41
30.0
176
     1
 63
     7
421
 16777215
176
     1
 74
     1
176
     1
 91
        4
176
     1
 64
     7
176
     1
 65
   257
176
     1
 75
     1
176
     1
175
     1
176
     1
 42
1.0
176
     1
 92
       12
176
     1
 66
     7
176
     1
 43
1.0
176
     1
 76
     1
176
     1
 77
     6
176
     1
 78
     2
176
     1
 67
     7
176
     1
 79
     5
176
     1
170
     0
176
     1
171
     0
176
     1
290
     0
176
     1
 93
        1
176
     1
 44
0.0
176
     1
173
     0
176
     1
1001
ACAD
1000
AcDbSavedByObjectVersion
1070
     0
  0
VISUALSTYLE
  5
30
102
{ACAD_XDICTIONARY
360
B6
102
}
102
{ACAD_REACTORS
330
29
102
}
330
29
100
AcDbVisualStyle
  2
Wireframe
 70
     5
177
     2
291
     0
 71
     0
176
     1
 72
     2
176
     1
 73
     0
176
     1
 90
        0
176
     1
 40
0.6
176
     1
 41
30.0
176
     1
 63
     7
421
 16777215
176
     1
 74
     1
176
     1
 91
        4
176
     1
 64
     7
176
     1
 65
   257
176
     1
 75
     1
176
     1
175
     1
176
     1
 42
1.0
176
     1
 92
        0
176
     1
 66
   257
176
     1
 43
1.0
176
     1
 76
     1
176
     1
 77
     6
176
     1
 78
     2
176
     1
 67
     7
176
     1
 79
     3
176
     1
170
     0
176
     1
171
     0
176
     1
290
     0
176
     1
 93
        1
176
     1
 44
0.0
176
     1
173
     0
176
     1
1001
ACAD
1000
AcDbSavedByObjectVersion
1070
     0
  0
VISUALSTYLE
  5
3C
102
{ACAD_XDICTIONARY
360
CE
102
}
102
{ACAD_REACTORS
330
29
102
}
330
29
100
AcDbVisualStyle
  2
X-Ray
 70
    25
177
     2
291
     0
 71
     2
176
     1
 72
     2
176
     1
 73
     1
176
     1
 90
        1
176
     1
 40
0.5
176
     1
 41
30.0
176
     1
 63
     7
421
 16777215
176
     1
 74
     1
176
     1
 91
        0
176
     1
 64
     7
176
     1
 65
   257
176
     1
 75
     1
176
     1
175
     1
176
     1
 42
1.0
176
     1
 92
        8
176
     1
 66
     7
176
     1
 43
1.0
176
     1
 76
     1
176
     1
 77
     6
176
     1
 78
     2
176
     1
 67
     7
176
     1
 79
     3
176
     1
170
     0
176
     1
171
     0
176
     1
290
     0
176
     1
 93
       13
176
     1
 44
0.0
176
     1
173
     0
176
     1
1001
ACAD
1000
AcDbSavedByObjectVersion
1070
     0
  0
DICTIONARYVAR
  5
A6
102
{ACAD_REACTORS
330
A1
102
}
330
A1
100
DictionaryVariables
280
     0
  1
1:1
  0
DICTIONARYVAR
  5
A3
102
{ACAD_REACTORS
330
A1
102
}
330
A1
100
DictionaryVariables
280
     0
  1
STANDARD
  0
DICTIONARYVAR
  5
A2
102
{ACAD_REACTORS
330
A1
102
}
330
A1
100
DictionaryVariables
280
     0
  1
STANDARD
  0
DICTIONARYVAR
  5
A4
102
{ACAD_REACTORS
330
A1
102
}
330
A1
100
DictionaryVariables
280
     0
  1
Imperial24
  0
DICTIONARYVAR
  5
A5
102
{ACAD_REACTORS
330
A1
102
}
330
A1
100
DictionaryVariables
280
     0
  1
Imperial24
  0
DICTIONARY
  5
DE
330
6B
100
AcDbDictionary
280
     1
281
     1
  3
ACAD_XREC_ROUNDTRIP
360
DF
  0
DICTIONARY
  5
1A
330
19
100
AcDbDictionary
280
     1
281
     1
  3
BUMPTILE
360
1C
  3
DIFFUSETILE
360
1B
  3
OPACITYTILE
360
1F
  3
REFLECTIONTILE
360
1E
  3
REFRACTIONTILE
360
20
  3
SPECULARTILE
360
1D
  0
DICTIONARY
  5
12
330
11
100
AcDbDictionary
280
     1
281
     1
  3
BUMPTILE
360
14
  3
DIFFUSETILE
360
13
  3
OPACITYTILE
360
17
  3
REFLECTIONTILE
360
16
  3
REFRACTIONTILE
360
18
  3
SPECULARTILE
360
15
  0
DICTIONARY
  5
22
330
21
100
AcDbDictionary
280
     1
281
     1
  3
BUMPTILE
360
24
  3
DIFFUSETILE
360
23
  3
OPACITYTILE
360
27
  3
REFLECTIONTILE
360
26
  3
REFRACTIONTILE
360
28
  3
SPECULARTILE
360
25
  0
DICTIONARY
  5
DA
330
67
100
AcDbDictionary
280
     1
281
     1
  3
ACAD_XREC_ROUNDTRIP
360
DB
  0
DICTIONARY
  5
DC
330
69
100
AcDbDictionary
280
     1
281
     1
  3
ACAD_XREC_ROUNDTRIP
360
DD
  0
DICTIONARY
  5
A7
330
65
100
AcDbDictionary
280
     1
281
     1
  3
ACAD_ROUNDTRIP_2008_TABLESTYLE_CELLSTYLEMAP
360
A8
  0
DICTIONARY
  5
B4
330
2F
100
AcDbDictionary
280
     1
281
     1
  3
ACAD_XREC_ROUNDTRIP
360
B5
  0
DICTIONARY
  5
B2
330
2E
100
AcDbDictionary
280
     1
281
     1
  3
ACAD_XREC_ROUNDTRIP
360
B3
  0
DICTIONARY
  5
C0
330
35
100
AcDbDictionary
280
     1
281
     1
  3
ACAD_XREC_ROUNDTRIP
360
C1
  0
DICTIONARY
  5
C8
330
39
100
AcDbDictionary
280
     1
281
     1
  3
ACAD_XREC_ROUNDTRIP
360
C9
  0
DICTIONARY
  5
BA
330
32
100
AcDbDictionary
280
     1
281
     1
  3
ACAD_XREC_ROUNDTRIP
360
BB
  0
DICTIONARY
  5
BE
330
34
100
AcDbDictionary
280
     1
281
     1
  3
ACAD_XREC_ROUNDTRIP
360
BF
  0
DICTIONARY
  5
D8
330
41
100
AcDbDictionary
280
     1
281
     1
  3
ACAD_XREC_ROUNDTRIP
360
D9
  0
DICTIONARY
  5
C6
330
38
100
AcDbDictionary
280
     1
281
     1
  3
ACAD_XREC_ROUNDTRIP
360
C7
  0
DICTIONARY
  5
AA
330
2A
100
AcDbDictionary
280
     1
281
     1
  3
ACAD_XREC_ROUNDTRIP
360
AB
  0
DICTIONARY
  5
AC
330
2B
100
AcDbDictionary
280
     1
281
     1
  3
ACAD_XREC_ROUNDTRIP
360
AD
  0
DICTIONARY
  5
AE
330
2C
100
AcDbDictionary
280
     1
281
     1
  3
ACAD_XREC_ROUNDTRIP
360
AF
  0
DICTIONARY
  5
B0
330
2D
100
AcDbDictionary
280
     1
281
     1
  3
ACAD_XREC_ROUNDTRIP
360
B1
  0
DICTIONARY
  5
B8
330
31
100
AcDbDictionary
280
     1
281
     1
  3
ACAD_XREC_ROUNDTRIP
360
B9
  0
DICTIONARY
  5
D4
330
3F
100
AcDbDictionary
280
     1
281
     1
  3
ACAD_XREC_ROUNDTRIP
360
D5
  0
DICTIONARY
  5
C4
330
37
100
AcDbDictionary
280
     1
281
     1
  3
ACAD_XREC_ROUNDTRIP
360
C5
  0
DICTIONARY
  5
D6
330
40
100
AcDbDictionary
280
     1
281
     1
  3
ACAD_XREC_ROUNDTRIP
360
D7
  0
DICTIONARY
  5
BC
330
33
100
AcDbDictionary
280
     1
281
     1
  3
ACAD_XREC_ROUNDTRIP
360
BD
  0
DICTIONARY
  5
D2
330
3E
100
AcDbDictionary
280
     1
281
     1
  3
ACAD_XREC_ROUNDTRIP
360
D3
  0
DICTIONARY
  5
D0
330
3D
100
AcDbDictionary
280
     1
281
     1
  3
ACAD_XREC_ROUNDTRIP
360
D1
  0
DICTIONARY
  5
CA
330
3A
100
AcDbDictionary
280
     1
281
     1
  3
ACAD_XREC_ROUNDTRIP
360
CB
  0
DICTIONARY
  5
CC
330
3B
100
AcDbDictionary
280
     1
281
     1
  3
ACAD_XREC_ROUNDTRIP
360
CD
  0
DICTIONARY
  5
C2
330
36
100
AcDbDictionary
280
     1
281
     1
  3
ACAD_XREC_ROUNDTRIP
360
C3
  0
DICTIONARY
  5
B6
330
30
100
AcDbDictionary
280
     1
281
     1
  3
ACAD_XREC_ROUNDTRIP
360
B7
  0
DICTIONARY
  5
CE
330
3C
100
AcDbDictionary
280
     1
281
     1
  3
ACAD_XREC_ROUNDTRIP
360
CF
  0
XRECORD
  5
DF
102
{ACAD_REACTORS
330
DE
102
}
330
DE
100
AcDbXrecord
280
     1
102
DISPLAYNAME
  1
Imperial24
102
FLAGS
 90
        0
  0
XRECORD
  5
1C
102
{ACAD_REACTORS
330
1A
102
}
330
1A
100
AcDbXrecord
280
     1
270
     1
271
     1
  0
XRECORD
  5
1B
102
{ACAD_REACTORS
330
1A
102
}
330
1A
100
AcDbXrecord
280
     1
270
     1
271
     1
  0
XRECORD
  5
1F
102
{ACAD_REACTORS
330
1A
102
}
330
1A
100
AcDbXrecord
280
     1
270
     1
271
     1
  0
XRECORD
  5
1E
102
{ACAD_REACTORS
330
1A
102
}
330
1A
100
AcDbXrecord
280
     1
270
     1
271
     1
  0
XRECORD
  5
20
102
{ACAD_REACTORS
330
1A
102
}
330
1A
100
AcDbXrecord
280
     1
270
     1
271
     1
  0
XRECORD
  5
1D
102
{ACAD_REACTORS
330
1A
102
}
330
1A
100
AcDbXrecord
280
     1
270
     1
271
     1
  0
XRECORD
  5
14
102
{ACAD_REACTORS
330
12
102
}
330
12
100
AcDbXrecord
280
     1
270
     1
271
     1
  0
XRECORD
  5
13
102
{ACAD_REACTORS
330
12
102
}
330
12
100
AcDbXrecord
280
     1
270
     1
271
     1
  0
XRECORD
  5
17
102
{ACAD_REACTORS
330
12
102
}
330
12
100
AcDbXrecord
280
     1
270
     1
271
     1
  0
XRECORD
  5
16
102
{ACAD_REACTORS
330
12
102
}
330
12
100
AcDbXrecord
280
     1
270
     1
271
     1
  0
XRECORD
  5
18
102
{ACAD_REACTORS
330
12
102
}
330
12
100
AcDbXrecord
280
     1
270
     1
271
     1
  0
XRECORD
  5
15
102
{ACAD_REACTORS
330
12
102
}
330
12
100
AcDbXrecord
280
     1
270
     1
271
     1
  0
XRECORD
  5
24
102
{ACAD_REACTORS
330
22
102
}
330
22
100
AcDbXrecord
280
     1
270
     1
271
     1
  0
XRECORD
  5
23
102
{ACAD_REACTORS
330
22
102
}
330
22
100
AcDbXrecord
280
     1
270
     1
271
     1
  0
XRECORD
  5
27
102
{ACAD_REACTORS
330
22
102
}
330
22
100
AcDbXrecord
280
     1
270
     1
271
     1
  0
XRECORD
  5
26
102
{ACAD_REACTORS
330
22
102
}
330
22
100
AcDbXrecord
280
     1
270
     1
271
     1
  0
XRECORD
  5
28
102
{ACAD_REACTORS
330
22
102
}
330
22
100
AcDbXrecord
280
     1
270
     1
271
     1
  0
XRECORD
  5
25
102
{ACAD_REACTORS
330
22
102
}
330
22
100
AcDbXrecord
280
     1
270
     1
271
     1
  0
XRECORD
  5
DB
102
{ACAD_REACTORS
330
DA
102
}
330
DA
100
AcDbXrecord
280
     1
102
ACAD_ROUNDTRIP_2012_MLEADER_STYLE
298
     1
  0
XRECORD
  5
DD
102
{ACAD_REACTORS
330
DC
102
}
330
DC
100
AcDbXrecord
280
     1
102
DISPLAYNAME
  1
Imperial24
102
FLAGS
 90
        0
  0
CELLSTYLEMAP
  5
A8
102
{ACAD_REACTORS
330
A7
102
}
330
A7
100
AcDbCellStyleMap
 90
        3
300
CELLSTYLE
  1
TABLEFORMAT_BEGIN
 90
        5
170
     1
 91
        0
 92
    32768
 62
   257
 93
        1
300
CONTENTFORMAT
  1
CONTENTFORMAT_BEGIN
 90
        0
 91
        0
 92
      512
 93
        0
300

 40
0.0
140
1.0
 94
        5
 62
     0
340
55
144
0.25
309
CONTENTFORMAT_END
171
     0
 94
        0
309
TABLEFORMAT_END
  1
CELLSTYLE_BEGIN
 90
        1
 91
        1
300
_TITLE
309
CELLSTYLE_END
300
CELLSTYLE
  1
TABLEFORMAT_BEGIN
 90
        5
170
     1
 91
        0
 92
        0
 62
   257
 93
        1
300
CONTENTFORMAT
  1
CONTENTFORMAT_BEGIN
 90
        0
 91
        0
 92
      512
 93
        0
300

 40
0.0
140
1.0
 94
        5
 62
     0
340
55
144
0.18
309
CONTENTFORMAT_END
171
     0
 94
        0
309
TABLEFORMAT_END
  1
CELLSTYLE_BEGIN
 90
        2
 91
        1
300
_HEADER
309
CELLSTYLE_END
300
CELLSTYLE
  1
TABLEFORMAT_BEGIN
 90
        5
170
     1
 91
        0
 92
        0
 62
   257
 93
        1
300
CONTENTFORMAT
  1
CONTENTFORMAT_BEGIN
 90
        0
 91
        0
 92
      512
 93
        0
300

 40
0.0
140
1.0
 94
        2
 62
     0
340
55
144
0.18
309
CONTENTFORMAT_END
171
     0
 94
        0
309
TABLEFORMAT_END
  1
CELLSTYLE_BEGIN
 90
        3
 91
        2
300
_DATA
309
CELLSTYLE_END
  0
XRECORD
  5
B5
102
{ACAD_REACTORS
330
B4
102
}
330
B4
100
AcDbXrecord
280
     1
102
RTVSPost2010Prop28
280
     1
102
RTVSPost2010PropOp28
 70
     1
102
RTVSPost2010Prop29
280
     1
102
RTVSPost2010PropOp29
 70
     1
102
RTVSPost2010Prop30
280
     0
102
RTVSPost2010PropOp30
 70
     1
102
RTVSPost2010Prop31
280
     0
102
RTVSPost2010PropOp31
 70
     1
102
RTVSPost2010Prop32
280
     0
102
RTVSPost2010PropOp32
 70
     1
102
RTVSPost2010Prop33
280
     0
102
RTVSPost2010PropOp33
 70
     1
102
RTVSPost2010Prop34
280
     0
102
RTVSPost2010PropOp34
 70
     1
102
RTVSPost2010Prop35
280
     0
102
RTVSPost2010PropOp35
 70
     1
102
RTVSPost2010Prop36
280
     0
102
RTVSPost2010PropOp36
 70
     1
102
RTVSPost2010Prop37
 90
       50
102
RTVSPost2010PropOp37
 70
     1
102
RTVSPost2010Prop38
140
0.0
102
RTVSPost2010PropOp38
 70
     1
102
RTVSPost2010Prop39
140
1.0
102
RTVSPost2010PropOp39
 70
     1
102
RTVSPost2010Prop40
 90
        0
102
RTVSPost2010PropOp40
 70
     1
102
RTVSPost2010Prop41ColorIndex
 90
       18
102
RTVSPost2010Prop41ColorRGB
 90
        0
102
RTVSPost2010PropOp41
 70
     1
102
RTVSPost2010Prop42
 90
       50
102
RTVSPost2010PropOp42
 70
     1
102
RTVSPost2010Prop43
 90
        3
102
RTVSPost2010PropOp43
 70
     1
102
RTVSPost2010Prop44ColorIndex
 90
        5
102
RTVSPost2010Prop44ColorRGB
 90
      255
102
RTVSPost2010PropOp44
 70
     1
102
RTVSPost2010Prop45
280
     0
102
RTVSPost2010PropOp45
 70
     1
102
RTVSPost2010Prop46
 90
       50
102
RTVSPost2010PropOp46
 70
     1
102
RTVSPost2010Prop47
 90
       50
102
RTVSPost2010PropOp47
 70
     1
102
RTVSPost2010Prop48
 90
       50
102
RTVSPost2010PropOp48
 70
     1
102
RTVSPost2010Prop49
280
     0
102
RTVSPost2010PropOp49
 70
     1
102
RTVSPost2010Prop50
 90
       50
102
RTVSPost2010PropOp50
 70
     1
102
RTVSPost2010Prop51ColorIndex
 90
      256
102
RTVSPost2010Prop51ColorRGB
 90
-16777216
102
RTVSPost2010PropOp51
 70
     0
102
RTVSPost2010Prop52
140
1.0
102
RTVSPost2010PropOp52
 70
     0
102
RTVSPost2010Prop53
 90
        2
102
RTVSPost2010PropOp53
 70
     1
102
RTVSPost2010Prop54
  1
strokes_ogs.tif
102
RTVSPost2010PropOp54
 70
     1
102
RTVSPost2010Prop55
280
     0
102
RTVSPost2010PropOp55
 70
     1
102
RTVSPost2010Prop56
140
1.0
102
RTVSPost2010PropOp56
 70
     1
102
RTVSPost2010Prop57
140
1.0
102
RTVSPost2010PropOp57
 70
     1
  0
XRECORD
  5
B3
102
{ACAD_REACTORS
330
B2
102
}
330
B2
100
AcDbXrecord
280
     1
102
RTVSPost2010Prop28
280
     0
102
RTVSPost2010PropOp28
 70
     1
102
RTVSPost2010Prop29
280
     1
102
RTVSPost2010PropOp29
 70
     1
102
RTVSPost2010Prop30
280
     1
102
RTVSPost2010PropOp30
 70
     1
102
RTVSPost2010Prop31
280
     0
102
RTVSPost2010PropOp31
 70
     1
102
RTVSPost2010Prop32
280
     0
102
RTVSPost2010PropOp32
 70
     1
102
RTVSPost2010Prop33
280
     0
102
RTVSPost2010PropOp33
 70
     1
102
RTVSPost2010Prop34
280
     0
102
RTVSPost2010PropOp34
 70
     1
102
RTVSPost2010Prop35
280
     0
102
RTVSPost2010PropOp35
 70
     1
102
RTVSPost2010Prop36
280
     0
102
RTVSPost2010PropOp36
 70
     1
102
RTVSPost2010Prop37
 90
       50
102
RTVSPost2010PropOp37
 70
     1
102
RTVSPost2010Prop38
140
0.0
102
RTVSPost2010PropOp38
 70
     1
102
RTVSPost2010Prop39
140
1.0
102
RTVSPost2010PropOp39
 70
     1
102
RTVSPost2010Prop40
 90
        0
102
RTVSPost2010PropOp40
 70
     1
102
RTVSPost2010Prop41ColorIndex
 90
       18
102
RTVSPost2010Prop41ColorRGB
 90
        0
102
RTVSPost2010PropOp41
 70
     1
102
RTVSPost2010Prop42
 90
       50
102
RTVSPost2010PropOp42
 70
     1
102
RTVSPost2010Prop43
 90
        3
102
RTVSPost2010PropOp43
 70
     1
102
RTVSPost2010Prop44ColorIndex
 90
        5
102
RTVSPost2010Prop44ColorRGB
 90
      255
102
RTVSPost2010PropOp44
 70
     1
102
RTVSPost2010Prop45
280
     0
102
RTVSPost2010PropOp45
 70
     1
102
RTVSPost2010Prop46
 90
       50
102
RTVSPost2010PropOp46
 70
     1
102
RTVSPost2010Prop47
 90
       50
102
RTVSPost2010PropOp47
 70
     1
102
RTVSPost2010Prop48
 90
       50
102
RTVSPost2010PropOp48
 70
     1
102
RTVSPost2010Prop49
280
     0
102
RTVSPost2010PropOp49
 70
     1
102
RTVSPost2010Prop50
 90
       50
102
RTVSPost2010PropOp50
 70
     1
102
RTVSPost2010Prop51ColorIndex
 90
      256
102
RTVSPost2010Prop51ColorRGB
 90
-16777216
102
RTVSPost2010PropOp51
 70
     0
102
RTVSPost2010Prop52
140
1.0
102
RTVSPost2010PropOp52
 70
     0
102
RTVSPost2010Prop53
 90
        2
102
RTVSPost2010PropOp53
 70
     1
102
RTVSPost2010Prop54
  1
strokes_ogs.tif
102
RTVSPost2010PropOp54
 70
     1
102
RTVSPost2010Prop55
280
     0
102
RTVSPost2010PropOp55
 70
     1
102
RTVSPost2010Prop56
140
1.0
102
RTVSPost2010PropOp56
 70
     1
102
RTVSPost2010Prop57
140
1.0
102
RTVSPost2010PropOp57
 70
     1
  0
XRECORD
  5
C1
102
{ACAD_REACTORS
330
C0
102
}
330
C0
100
AcDbXrecord
280
     1
102
RTVSPost2010Prop28
280
     0
102
RTVSPost2010PropOp28
 70
     1
102
RTVSPost2010Prop29
280
     1
102
RTVSPost2010PropOp29
 70
     1
102
RTVSPost2010Prop30
280
     1
102
RTVSPost2010PropOp30
 70
     1
102
RTVSPost2010Prop31
280
     0
102
RTVSPost2010PropOp31
 70
     1
102
RTVSPost2010Prop32
280
     0
102
RTVSPost2010PropOp32
 70
     1
102
RTVSPost2010Prop33
280
     0
102
RTVSPost2010PropOp33
 70
     1
102
RTVSPost2010Prop34
280
     0
102
RTVSPost2010PropOp34
 70
     1
102
RTVSPost2010Prop35
280
     0
102
RTVSPost2010PropOp35
 70
     1
102
RTVSPost2010Prop36
280
     0
102
RTVSPost2010PropOp36
 70
     1
102
RTVSPost2010Prop37
 90
       50
102
RTVSPost2010PropOp37
 70
     1
102
RTVSPost2010Prop38
140
0.0
102
RTVSPost2010PropOp38
 70
     1
102
RTVSPost2010Prop39
140
1.0
102
RTVSPost2010PropOp39
 70
     1
102
RTVSPost2010Prop40
 90
        0
102
RTVSPost2010PropOp40
 70
     1
102
RTVSPost2010Prop41ColorIndex
 90
       18
102
RTVSPost2010Prop41ColorRGB
 90
        0
102
RTVSPost2010PropOp41
 70
     1
102
RTVSPost2010Prop42
 90
       50
102
RTVSPost2010PropOp42
 70
     1
102
RTVSPost2010Prop43
 90
        3
102
RTVSPost2010PropOp43
 70
     1
102
RTVSPost2010Prop44ColorIndex
 90
        5
102
RTVSPost2010Prop44ColorRGB
 90
      255
102
RTVSPost2010PropOp44
 70
     1
102
RTVSPost2010Prop45
280
     0
102
RTVSPost2010PropOp45
 70
     1
102
RTVSPost2010Prop46
 90
       50
102
RTVSPost2010PropOp46
 70
     1
102
RTVSPost2010Prop47
 90
       50
102
RTVSPost2010PropOp47
 70
     1
102
RTVSPost2010Prop48
 90
       50
102
RTVSPost2010PropOp48
 70
     1
102
RTVSPost2010Prop49
280
     0
102
RTVSPost2010PropOp49
 70
     1
102
RTVSPost2010Prop50
 90
       50
102
RTVSPost2010PropOp50
 70
     1
102
RTVSPost2010Prop51ColorIndex
 90
      256
102
RTVSPost2010Prop51ColorRGB
 90
-16777216
102
RTVSPost2010PropOp51
 70
     0
102
RTVSPost2010Prop52
140
1.0
102
RTVSPost2010PropOp52
 70
     0
102
RTVSPost2010Prop53
 90
        2
102
RTVSPost2010PropOp53
 70
     1
102
RTVSPost2010Prop54
  1
strokes_ogs.tif
102
RTVSPost2010PropOp54
 70
     1
102
RTVSPost2010Prop55
280
     0
102
RTVSPost2010PropOp55
 70
     1
102
RTVSPost2010Prop56
140
1.0
102
RTVSPost2010PropOp56
 70
     1
102
RTVSPost2010Prop57
140
1.0
102
RTVSPost2010PropOp57
 70
     1
  0
XRECORD
  5
C9
102
{ACAD_REACTORS
330
C8
102
}
330
C8
100
AcDbXrecord
280
     1
102
RTVSPost2010Prop28
280
     0
102
RTVSPost2010PropOp28
 70
     1
102
RTVSPost2010Prop29
280
     1
102
RTVSPost2010PropOp29
 70
     1
102
RTVSPost2010Prop30
280
     1
102
RTVSPost2010PropOp30
 70
     1
102
RTVSPost2010Prop31
280
     0
102
RTVSPost2010PropOp31
 70
     1
102
RTVSPost2010Prop32
280
     0
102
RTVSPost2010PropOp32
 70
     1
102
RTVSPost2010Prop33
280
     0
102
RTVSPost2010PropOp33
 70
     1
102
RTVSPost2010Prop34
280
     0
102
RTVSPost2010PropOp34
 70
     1
102
RTVSPost2010Prop35
280
     0
102
RTVSPost2010PropOp35
 70
     1
102
RTVSPost2010Prop36
280
     0
102
RTVSPost2010PropOp36
 70
     1
102
RTVSPost2010Prop37
 90
       50
102
RTVSPost2010PropOp37
 70
     1
102
RTVSPost2010Prop38
140
0.0
102
RTVSPost2010PropOp38
 70
     1
102
RTVSPost2010Prop39
140
1.0
102
RTVSPost2010PropOp39
 70
     1
102
RTVSPost2010Prop40
 90
        0
102
RTVSPost2010PropOp40
 70
     1
102
RTVSPost2010Prop41ColorIndex
 90
       18
102
RTVSPost2010Prop41ColorRGB
 90
        0
102
RTVSPost2010PropOp41
 70
     1
102
RTVSPost2010Prop42
 90
       50
102
RTVSPost2010PropOp42
 70
     1
102
RTVSPost2010Prop43
 90
        3
102
RTVSPost2010PropOp43
 70
     1
102
RTVSPost2010Prop44ColorIndex
 90
        5
102
RTVSPost2010Prop44ColorRGB
 90
      255
102
RTVSPost2010PropOp44
 70
     1
102
RTVSPost2010Prop45
280
     0
102
RTVSPost2010PropOp45
 70
     1
102
RTVSPost2010Prop46
 90
       50
102
RTVSPost2010PropOp46
 70
     1
102
RTVSPost2010Prop47
 90
       50
102
RTVSPost2010PropOp47
 70
     1
102
RTVSPost2010Prop48
 90
       50
102
RTVSPost2010PropOp48
 70
     1
102
RTVSPost2010Prop49
280
     0
102
RTVSPost2010PropOp49
 70
     1
102
RTVSPost2010Prop50
 90
       50
102
RTVSPost2010PropOp50
 70
     1
102
RTVSPost2010Prop51ColorIndex
 90
      256
102
RTVSPost2010Prop51ColorRGB
 90
-16777216
102
RTVSPost2010PropOp51
 70
     0
102
RTVSPost2010Prop52
140
1.0
102
RTVSPost2010PropOp52
 70
     0
102
RTVSPost2010Prop53
 90
        2
102
RTVSPost2010PropOp53
 70
     1
102
RTVSPost2010Prop54
  1
strokes_ogs.tif
102
RTVSPost2010PropOp54
 70
     1
102
RTVSPost2010Prop55
280
     0
102
RTVSPost2010PropOp55
 70
     1
102
RTVSPost2010Prop56
140
1.0
102
RTVSPost2010PropOp56
 70
     1
102
RTVSPost2010Prop57
140
1.0
102
RTVSPost2010PropOp57
 70
     1
  0
XRECORD
  5
BB
102
{ACAD_REACTORS
330
BA
102
}
330
BA
100
AcDbXrecord
280
     1
102
RTVSPost2010Prop28
280
     0
102
RTVSPost2010PropOp28
 70
     1
102
RTVSPost2010Prop29
280
     1
102
RTVSPost2010PropOp29
 70
     1
102
RTVSPost2010Prop30
280
     1
102
RTVSPost2010PropOp30
 70
     1
102
RTVSPost2010Prop31
280
     0
102
RTVSPost2010PropOp31
 70
     1
102
RTVSPost2010Prop32
280
     0
102
RTVSPost2010PropOp32
 70
     1
102
RTVSPost2010Prop33
280
     0
102
RTVSPost2010PropOp33
 70
     1
102
RTVSPost2010Prop34
280
     0
102
RTVSPost2010PropOp34
 70
     1
102
RTVSPost2010Prop35
280
     0
102
RTVSPost2010PropOp35
 70
     1
102
RTVSPost2010Prop36
280
     0
102
RTVSPost2010PropOp36
 70
     1
102
RTVSPost2010Prop37
 90
       50
102
RTVSPost2010PropOp37
 70
     1
102
RTVSPost2010Prop38
140
0.0
102
RTVSPost2010PropOp38
 70
     1
102
RTVSPost2010Prop39
140
1.0
102
RTVSPost2010PropOp39
 70
     1
102
RTVSPost2010Prop40
 90
        0
102
RTVSPost2010PropOp40
 70
     1
102
RTVSPost2010Prop41ColorIndex
 90
       18
102
RTVSPost2010Prop41ColorRGB
 90
        0
102
RTVSPost2010PropOp41
 70
     1
102
RTVSPost2010Prop42
 90
       50
102
RTVSPost2010PropOp42
 70
     1
102
RTVSPost2010Prop43
 90
        3
102
RTVSPost2010PropOp43
 70
     1
102
RTVSPost2010Prop44ColorIndex
 90
        5
102
RTVSPost2010Prop44ColorRGB
 90
      255
102
RTVSPost2010PropOp44
 70
     1
102
RTVSPost2010Prop45
280
     0
102
RTVSPost2010PropOp45
 70
     1
102
RTVSPost2010Prop46
 90
       50
102
RTVSPost2010PropOp46
 70
     1
102
RTVSPost2010Prop47
 90
       50
102
RTVSPost2010PropOp47
 70
     1
102
RTVSPost2010Prop48
 90
       50
102
RTVSPost2010PropOp48
 70
     1
102
RTVSPost2010Prop49
280
     0
102
RTVSPost2010PropOp49
 70
     1
102
RTVSPost2010Prop50
 90
       50
102
RTVSPost2010PropOp50
 70
     1
102
RTVSPost2010Prop51ColorIndex
 90
      256
102
RTVSPost2010Prop51ColorRGB
 90
-16777216
102
RTVSPost2010PropOp51
 70
     0
102
RTVSPost2010Prop52
140
1.0
102
RTVSPost2010PropOp52
 70
     0
102
RTVSPost2010Prop53
 90
        2
102
RTVSPost2010PropOp53
 70
     1
102
RTVSPost2010Prop54
  1
strokes_ogs.tif
102
RTVSPost2010PropOp54
 70
     1
102
RTVSPost2010Prop55
280
     0
102
RTVSPost2010PropOp55
 70
     1
102
RTVSPost2010Prop56
140
1.0
102
RTVSPost2010PropOp56
 70
     1
102
RTVSPost2010Prop57
140
1.0
102
RTVSPost2010PropOp57
 70
     1
  0
XRECORD
  5
BF
102
{ACAD_REACTORS
330
BE
102
}
330
BE
100
AcDbXrecord
280
     1
102
RTVSPost2010Prop28
280
     0
102
RTVSPost2010PropOp28
 70
     1
102
RTVSPost2010Prop29
280
     1
102
RTVSPost2010PropOp29
 70
     1
102
RTVSPost2010Prop30
280
     1
102
RTVSPost2010PropOp30
 70
     1
102
RTVSPost2010Prop31
280
     0
102
RTVSPost2010PropOp31
 70
     1
102
RTVSPost2010Prop32
280
     0
102
RTVSPost2010PropOp32
 70
     1
102
RTVSPost2010Prop33
280
     0
102
RTVSPost2010PropOp33
 70
     1
102
RTVSPost2010Prop34
280
     0
102
RTVSPost2010PropOp34
 70
     1
102
RTVSPost2010Prop35
280
     0
102
RTVSPost2010PropOp35
 70
     1
102
RTVSPost2010Prop36
280
     0
102
RTVSPost2010PropOp36
 70
     1
102
RTVSPost2010Prop37
 90
       50
102
RTVSPost2010PropOp37
 70
     1
102
RTVSPost2010Prop38
140
0.0
102
RTVSPost2010PropOp38
 70
     1
102
RTVSPost2010Prop39
140
1.0
102
RTVSPost2010PropOp39
 70
     1
102
RTVSPost2010Prop40
 90
        0
102
RTVSPost2010PropOp40
 70
     1
102
RTVSPost2010Prop41ColorIndex
 90
       18
102
RTVSPost2010Prop41ColorRGB
 90
        0
102
RTVSPost2010PropOp41
 70
     1
102
RTVSPost2010Prop42
 90
       50
102
RTVSPost2010PropOp42
 70
     1
102
RTVSPost2010Prop43
 90
        3
102
RTVSPost2010PropOp43
 70
     1
102
RTVSPost2010Prop44ColorIndex
 90
        5
102
RTVSPost2010Prop44ColorRGB
 90
      255
102
RTVSPost2010PropOp44
 70
     1
102
RTVSPost2010Prop45
280
     0
102
RTVSPost2010PropOp45
 70
     1
102
RTVSPost2010Prop46
 90
       50
102
RTVSPost2010PropOp46
 70
     1
102
RTVSPost2010Prop47
 90
       50
102
RTVSPost2010PropOp47
 70
     1
102
RTVSPost2010Prop48
 90
       50
102
RTVSPost2010PropOp48
 70
     1
102
RTVSPost2010Prop49
280
     0
102
RTVSPost2010PropOp49
 70
     1
102
RTVSPost2010Prop50
 90
       50
102
RTVSPost2010PropOp50
 70
     1
102
RTVSPost2010Prop51ColorIndex
 90
      256
102
RTVSPost2010Prop51ColorRGB
 90
-16777216
102
RTVSPost2010PropOp51
 70
     0
102
RTVSPost2010Prop52
140
1.0
102
RTVSPost2010PropOp52
 70
     0
102
RTVSPost2010Prop53
 90
        2
102
RTVSPost2010PropOp53
 70
     1
102
RTVSPost2010Prop54
  1
strokes_ogs.tif
102
RTVSPost2010PropOp54
 70
     1
102
RTVSPost2010Prop55
280
     0
102
RTVSPost2010PropOp55
 70
     1
102
RTVSPost2010Prop56
140
1.0
102
RTVSPost2010PropOp56
 70
     1
102
RTVSPost2010Prop57
140
1.0
102
RTVSPost2010PropOp57
 70
     1
  0
XRECORD
  5
D9
102
{ACAD_REACTORS
330
D8
102
}
330
D8
100
AcDbXrecord
280
     1
102
RTVSPost2010Prop28
280
     0
102
RTVSPost2010PropOp28
 70
     0
102
RTVSPost2010Prop29
280
     1
102
RTVSPost2010PropOp29
 70
     0
102
RTVSPost2010Prop30
280
     1
102
RTVSPost2010PropOp30
 70
     0
102
RTVSPost2010Prop31
280
     0
102
RTVSPost2010PropOp31
 70
     0
102
RTVSPost2010Prop32
280
     0
102
RTVSPost2010PropOp32
 70
     0
102
RTVSPost2010Prop33
280
     0
102
RTVSPost2010PropOp33
 70
     0
102
RTVSPost2010Prop34
280
     0
102
RTVSPost2010PropOp34
 70
     0
102
RTVSPost2010Prop35
280
     0
102
RTVSPost2010PropOp35
 70
     0
102
RTVSPost2010Prop36
280
     0
102
RTVSPost2010PropOp36
 70
     0
102
RTVSPost2010Prop37
 90
       50
102
RTVSPost2010PropOp37
 70
     0
102
RTVSPost2010Prop38
140
0.0
102
RTVSPost2010PropOp38
 70
     0
102
RTVSPost2010Prop39
140
1.0
102
RTVSPost2010PropOp39
 70
     0
102
RTVSPost2010Prop40
 90
        0
102
RTVSPost2010PropOp40
 70
     0
102
RTVSPost2010Prop41ColorIndex
 90
       18
102
RTVSPost2010Prop41ColorRGB
 90
        0
102
RTVSPost2010PropOp41
 70
     0
102
RTVSPost2010Prop42
 90
       50
102
RTVSPost2010PropOp42
 70
     0
102
RTVSPost2010Prop43
 90
        3
102
RTVSPost2010PropOp43
 70
     0
102
RTVSPost2010Prop44ColorIndex
 90
        5
102
RTVSPost2010Prop44ColorRGB
 90
      255
102
RTVSPost2010PropOp44
 70
     0
102
RTVSPost2010Prop45
280
     0
102
RTVSPost2010PropOp45
 70
     0
102
RTVSPost2010Prop46
 90
       50
102
RTVSPost2010PropOp46
 70
     0
102
RTVSPost2010Prop47
 90
       50
102
RTVSPost2010PropOp47
 70
     0
102
RTVSPost2010Prop48
 90
       50
102
RTVSPost2010PropOp48
 70
     0
102
RTVSPost2010Prop49
280
     0
102
RTVSPost2010PropOp49
 70
     0
102
RTVSPost2010Prop50
 90
       50
102
RTVSPost2010PropOp50
 70
     0
102
RTVSPost2010Prop51ColorIndex
 90
      256
102
RTVSPost2010Prop51ColorRGB
 90
-16777216
102
RTVSPost2010PropOp51
 70
     0
102
RTVSPost2010Prop52
140
1.0
102
RTVSPost2010PropOp52
 70
     0
102
RTVSPost2010Prop53
 90
        2
102
RTVSPost2010PropOp53
 70
     0
102
RTVSPost2010Prop54
  1
strokes_ogs.tif
102
RTVSPost2010PropOp54
 70
     0
102
RTVSPost2010Prop55
280
     0
102
RTVSPost2010PropOp55
 70
     0
102
RTVSPost2010Prop56
140
1.0
102
RTVSPost2010PropOp56
 70
     0
102
RTVSPost2010Prop57
140
1.0
102
RTVSPost2010PropOp57
 70
     0
  0
XRECORD
  5
C7
102
{ACAD_REACTORS
330
C6
102
}
330
C6
100
AcDbXrecord
280
     1
102
RTVSPost2010Prop28
280
     0
102
RTVSPost2010PropOp28
 70
     1
102
RTVSPost2010Prop29
280
     1
102
RTVSPost2010PropOp29
 70
     1
102
RTVSPost2010Prop30
280
     1
102
RTVSPost2010PropOp30
 70
     1
102
RTVSPost2010Prop31
280
     0
102
RTVSPost2010PropOp31
 70
     1
102
RTVSPost2010Prop32
280
     0
102
RTVSPost2010PropOp32
 70
     1
102
RTVSPost2010Prop33
280
     0
102
RTVSPost2010PropOp33
 70
     1
102
RTVSPost2010Prop34
280
     0
102
RTVSPost2010PropOp34
 70
     1
102
RTVSPost2010Prop35
280
     0
102
RTVSPost2010PropOp35
 70
     1
102
RTVSPost2010Prop36
280
     0
102
RTVSPost2010PropOp36
 70
     1
102
RTVSPost2010Prop37
 90
       50
102
RTVSPost2010PropOp37
 70
     1
102
RTVSPost2010Prop38
140
0.0
102
RTVSPost2010PropOp38
 70
     1
102
RTVSPost2010Prop39
140
1.0
102
RTVSPost2010PropOp39
 70
     1
102
RTVSPost2010Prop40
 90
        0
102
RTVSPost2010PropOp40
 70
     1
102
RTVSPost2010Prop41ColorIndex
 90
       18
102
RTVSPost2010Prop41ColorRGB
 90
        0
102
RTVSPost2010PropOp41
 70
     1
102
RTVSPost2010Prop42
 90
       50
102
RTVSPost2010PropOp42
 70
     1
102
RTVSPost2010Prop43
 90
        3
102
RTVSPost2010PropOp43
 70
     1
102
RTVSPost2010Prop44ColorIndex
 90
        5
102
RTVSPost2010Prop44ColorRGB
 90
      255
102
RTVSPost2010PropOp44
 70
     1
102
RTVSPost2010Prop45
280
     0
102
RTVSPost2010PropOp45
 70
     1
102
RTVSPost2010Prop46
 90
       50
102
RTVSPost2010PropOp46
 70
     1
102
RTVSPost2010Prop47
 90
       50
102
RTVSPost2010PropOp47
 70
     1
102
RTVSPost2010Prop48
 90
       50
102
RTVSPost2010PropOp48
 70
     1
102
RTVSPost2010Prop49
280
     0
102
RTVSPost2010PropOp49
 70
     1
102
RTVSPost2010Prop50
 90
       50
102
RTVSPost2010PropOp50
 70
     1
102
RTVSPost2010Prop51ColorIndex
 90
      256
102
RTVSPost2010Prop51ColorRGB
 90
-16777216
102
RTVSPost2010PropOp51
 70
     0
102
RTVSPost2010Prop52
140
1.0
102
RTVSPost2010PropOp52
 70
     0
102
RTVSPost2010Prop53
 90
        2
102
RTVSPost2010PropOp53
 70
     1
102
RTVSPost2010Prop54
  1
strokes_ogs.tif
102
RTVSPost2010PropOp54
 70
     1
102
RTVSPost2010Prop55
280
     0
102
RTVSPost2010PropOp55
 70
     1
102
RTVSPost2010Prop56
140
1.0
102
RTVSPost2010PropOp56
 70
     1
102
RTVSPost2010Prop57
140
1.0
102
RTVSPost2010PropOp57
 70
     1
  0
XRECORD
  5
AB
102
{ACAD_REACTORS
330
AA
102
}
330
AA
100
AcDbXrecord
280
     1
102
RTVSPost2010Prop28
280
     0
102
RTVSPost2010PropOp28
 70
     1
102
RTVSPost2010Prop29
280
     1
102
RTVSPost2010PropOp29
 70
     1
102
RTVSPost2010Prop30
280
     1
102
RTVSPost2010PropOp30
 70
     1
102
RTVSPost2010Prop31
280
     0
102
RTVSPost2010PropOp31
 70
     1
102
RTVSPost2010Prop32
280
     0
102
RTVSPost2010PropOp32
 70
     1
102
RTVSPost2010Prop33
280
     0
102
RTVSPost2010PropOp33
 70
     1
102
RTVSPost2010Prop34
280
     0
102
RTVSPost2010PropOp34
 70
     1
102
RTVSPost2010Prop35
280
     0
102
RTVSPost2010PropOp35
 70
     1
102
RTVSPost2010Prop36
280
     0
102
RTVSPost2010PropOp36
 70
     1
102
RTVSPost2010Prop37
 90
       50
102
RTVSPost2010PropOp37
 70
     1
102
RTVSPost2010Prop38
140
0.0
102
RTVSPost2010PropOp38
 70
     1
102
RTVSPost2010Prop39
140
1.0
102
RTVSPost2010PropOp39
 70
     1
102
RTVSPost2010Prop40
 90
        0
102
RTVSPost2010PropOp40
 70
     1
102
RTVSPost2010Prop41ColorIndex
 90
       18
102
RTVSPost2010Prop41ColorRGB
 90
        0
102
RTVSPost2010PropOp41
 70
     1
102
RTVSPost2010Prop42
 90
       50
102
RTVSPost2010PropOp42
 70
     1
102
RTVSPost2010Prop43
 90
        3
102
RTVSPost2010PropOp43
 70
     1
102
RTVSPost2010Prop44ColorIndex
 90
        5
102
RTVSPost2010Prop44ColorRGB
 90
      255
102
RTVSPost2010PropOp44
 70
     1
102
RTVSPost2010Prop45
280
     0
102
RTVSPost2010PropOp45
 70
     1
102
RTVSPost2010Prop46
 90
       50
102
RTVSPost2010PropOp46
 70
     1
102
RTVSPost2010Prop47
 90
       50
102
RTVSPost2010PropOp47
 70
     1
102
RTVSPost2010Prop48
 90
       50
102
RTVSPost2010PropOp48
 70
     1
102
RTVSPost2010Prop49
280
     0
102
RTVSPost2010PropOp49
 70
     1
102
RTVSPost2010Prop50
 90
       50
102
RTVSPost2010PropOp50
 70
     1
102
RTVSPost2010Prop51ColorIndex
 90
      256
102
RTVSPost2010Prop51ColorRGB
 90
-16777216
102
RTVSPost2010PropOp51
 70
     0
102
RTVSPost2010Prop52
140
1.0
102
RTVSPost2010PropOp52
 70
     0
102
RTVSPost2010Prop53
 90
        2
102
RTVSPost2010PropOp53
 70
     1
102
RTVSPost2010Prop54
  1
strokes_ogs.tif
102
RTVSPost2010PropOp54
 70
     1
102
RTVSPost2010Prop55
280
     0
102
RTVSPost2010PropOp55
 70
     1
102
RTVSPost2010Prop56
140
1.0
102
RTVSPost2010PropOp56
 70
     1
102
RTVSPost2010Prop57
140
1.0
102
RTVSPost2010PropOp57
 70
     1
  0
XRECORD
  5
AD
102
{ACAD_REACTORS
330
AC
102
}
330
AC
100
AcDbXrecord
280
     1
102
RTVSPost2010Prop28
280
     0
102
RTVSPost2010PropOp28
 70
     1
102
RTVSPost2010Prop29
280
     1
102
RTVSPost2010PropOp29
 70
     1
102
RTVSPost2010Prop30
280
     1
102
RTVSPost2010PropOp30
 70
     1
102
RTVSPost2010Prop31
280
     0
102
RTVSPost2010PropOp31
 70
     1
102
RTVSPost2010Prop32
280
     0
102
RTVSPost2010PropOp32
 70
     1
102
RTVSPost2010Prop33
280
     0
102
RTVSPost2010PropOp33
 70
     1
102
RTVSPost2010Prop34
280
     0
102
RTVSPost2010PropOp34
 70
     1
102
RTVSPost2010Prop35
280
     0
102
RTVSPost2010PropOp35
 70
     1
102
RTVSPost2010Prop36
280
     0
102
RTVSPost2010PropOp36
 70
     1
102
RTVSPost2010Prop37
 90
       50
102
RTVSPost2010PropOp37
 70
     1
102
RTVSPost2010Prop38
140
0.0
102
RTVSPost2010PropOp38
 70
     1
102
RTVSPost2010Prop39
140
1.0
102
RTVSPost2010PropOp39
 70
     1
102
RTVSPost2010Prop40
 90
        0
102
RTVSPost2010PropOp40
 70
     1
102
RTVSPost2010Prop41ColorIndex
 90
       18
102
RTVSPost2010Prop41ColorRGB
 90
        0
102
RTVSPost2010PropOp41
 70
     1
102
RTVSPost2010Prop42
 90
       50
102
RTVSPost2010PropOp42
 70
     1
102
RTVSPost2010Prop43
 90
        3
102
RTVSPost2010PropOp43
 70
     1
102
RTVSPost2010Prop44ColorIndex
 90
        5
102
RTVSPost2010Prop44ColorRGB
 90
      255
102
RTVSPost2010PropOp44
 70
     1
102
RTVSPost2010Prop45
280
     0
102
RTVSPost2010PropOp45
 70
     1
102
RTVSPost2010Prop46
 90
       50
102
RTVSPost2010PropOp46
 70
     1
102
RTVSPost2010Prop47
 90
       50
102
RTVSPost2010PropOp47
 70
     1
102
RTVSPost2010Prop48
 90
       50
102
RTVSPost2010PropOp48
 70
     1
102
RTVSPost2010Prop49
280
     0
102
RTVSPost2010PropOp49
 70
     1
102
RTVSPost2010Prop50
 90
       50
102
RTVSPost2010PropOp50
 70
     1
102
RTVSPost2010Prop51ColorIndex
 90
      256
102
RTVSPost2010Prop51ColorRGB
 90
-16777216
102
RTVSPost2010PropOp51
 70
     0
102
RTVSPost2010Prop52
140
1.0
102
RTVSPost2010PropOp52
 70
     0
102
RTVSPost2010Prop53
 90
        2
102
RTVSPost2010PropOp53
 70
     1
102
RTVSPost2010Prop54
  1
strokes_ogs.tif
102
RTVSPost2010PropOp54
 70
     1
102
RTVSPost2010Prop55
280
     0
102
RTVSPost2010PropOp55
 70
     1
102
RTVSPost2010Prop56
140
1.0
102
RTVSPost2010PropOp56
 70
     1
102
RTVSPost2010Prop57
140
1.0
102
RTVSPost2010PropOp57
 70
     1
  0
XRECORD
  5
AF
102
{ACAD_REACTORS
330
AE
102
}
330
AE
100
AcDbXrecord
280
     1
102
RTVSPost2010Prop28
280
     0
102
RTVSPost2010PropOp28
 70
     1
102
RTVSPost2010Prop29
280
     1
102
RTVSPost2010PropOp29
 70
     1
102
RTVSPost2010Prop30
280
     1
102
RTVSPost2010PropOp30
 70
     1
102
RTVSPost2010Prop31
280
     0
102
RTVSPost2010PropOp31
 70
     1
102
RTVSPost2010Prop32
280
     0
102
RTVSPost2010PropOp32
 70
     1
102
RTVSPost2010Prop33
280
     0
102
RTVSPost2010PropOp33
 70
     1
102
RTVSPost2010Prop34
280
     0
102
RTVSPost2010PropOp34
 70
     1
102
RTVSPost2010Prop35
280
     0
102
RTVSPost2010PropOp35
 70
     1
102
RTVSPost2010Prop36
280
     0
102
RTVSPost2010PropOp36
 70
     1
102
RTVSPost2010Prop37
 90
       50
102
RTVSPost2010PropOp37
 70
     1
102
RTVSPost2010Prop38
140
0.0
102
RTVSPost2010PropOp38
 70
     1
102
RTVSPost2010Prop39
140
1.0
102
RTVSPost2010PropOp39
 70
     1
102
RTVSPost2010Prop40
 90
        0
102
RTVSPost2010PropOp40
 70
     1
102
RTVSPost2010Prop41ColorIndex
 90
       18
102
RTVSPost2010Prop41ColorRGB
 90
        0
102
RTVSPost2010PropOp41
 70
     1
102
RTVSPost2010Prop42
 90
       50
102
RTVSPost2010PropOp42
 70
     1
102
RTVSPost2010Prop43
 90
        3
102
RTVSPost2010PropOp43
 70
     1
102
RTVSPost2010Prop44ColorIndex
 90
        5
102
RTVSPost2010Prop44ColorRGB
 90
      255
102
RTVSPost2010PropOp44
 70
     1
102
RTVSPost2010Prop45
280
     0
102
RTVSPost2010PropOp45
 70
     1
102
RTVSPost2010Prop46
 90
       50
102
RTVSPost2010PropOp46
 70
     1
102
RTVSPost2010Prop47
 90
       50
102
RTVSPost2010PropOp47
 70
     1
102
RTVSPost2010Prop48
 90
       50
102
RTVSPost2010PropOp48
 70
     1
102
RTVSPost2010Prop49
280
     0
102
RTVSPost2010PropOp49
 70
     1
102
RTVSPost2010Prop50
 90
       50
102
RTVSPost2010PropOp50
 70
     1
102
RTVSPost2010Prop51ColorIndex
 90
      256
102
RTVSPost2010Prop51ColorRGB
 90
-16777216
102
RTVSPost2010PropOp51
 70
     0
102
RTVSPost2010Prop52
140
1.0
102
RTVSPost2010PropOp52
 70
     0
102
RTVSPost2010Prop53
 90
        2
102
RTVSPost2010PropOp53
 70
     1
102
RTVSPost2010Prop54
  1
strokes_ogs.tif
102
RTVSPost2010PropOp54
 70
     1
102
RTVSPost2010Prop55
280
     0
102
RTVSPost2010PropOp55
 70
     1
102
RTVSPost2010Prop56
140
1.0
102
RTVSPost2010PropOp56
 70
     1
102
RTVSPost2010Prop57
140
1.0
102
RTVSPost2010PropOp57
 70
     1
  0
XRECORD
  5
B1
102
{ACAD_REACTORS
330
B0
102
}
330
B0
100
AcDbXrecord
280
     1
102
RTVSPost2010Prop28
280
     0
102
RTVSPost2010PropOp28
 70
     1
102
RTVSPost2010Prop29
280
     1
102
RTVSPost2010PropOp29
 70
     1
102
RTVSPost2010Prop30
280
     1
102
RTVSPost2010PropOp30
 70
     1
102
RTVSPost2010Prop31
280
     0
102
RTVSPost2010PropOp31
 70
     1
102
RTVSPost2010Prop32
280
     0
102
RTVSPost2010PropOp32
 70
     1
102
RTVSPost2010Prop33
280
     0
102
RTVSPost2010PropOp33
 70
     1
102
RTVSPost2010Prop34
280
     0
102
RTVSPost2010PropOp34
 70
     1
102
RTVSPost2010Prop35
280
     0
102
RTVSPost2010PropOp35
 70
     1
102
RTVSPost2010Prop36
280
     0
102
RTVSPost2010PropOp36
 70
     1
102
RTVSPost2010Prop37
 90
       50
102
RTVSPost2010PropOp37
 70
     1
102
RTVSPost2010Prop38
140
0.0
102
RTVSPost2010PropOp38
 70
     1
102
RTVSPost2010Prop39
140
1.0
102
RTVSPost2010PropOp39
 70
     1
102
RTVSPost2010Prop40
 90
        0
102
RTVSPost2010PropOp40
 70
     1
102
RTVSPost2010Prop41ColorIndex
 90
       18
102
RTVSPost2010Prop41ColorRGB
 90
        0
102
RTVSPost2010PropOp41
 70
     1
102
RTVSPost2010Prop42
 90
       50
102
RTVSPost2010PropOp42
 70
     1
102
RTVSPost2010Prop43
 90
        3
102
RTVSPost2010PropOp43
 70
     1
102
RTVSPost2010Prop44ColorIndex
 90
        5
102
RTVSPost2010Prop44ColorRGB
 90
      255
102
RTVSPost2010PropOp44
 70
     1
102
RTVSPost2010Prop45
280
     0
102
RTVSPost2010PropOp45
 70
     1
102
RTVSPost2010Prop46
 90
       50
102
RTVSPost2010PropOp46
 70
     1
102
RTVSPost2010Prop47
 90
       50
102
RTVSPost2010PropOp47
 70
     1
102
RTVSPost2010Prop48
 90
       50
102
RTVSPost2010PropOp48
 70
     1
102
RTVSPost2010Prop49
280
     0
102
RTVSPost2010PropOp49
 70
     1
102
RTVSPost2010Prop50
 90
       50
102
RTVSPost2010PropOp50
 70
     1
102
RTVSPost2010Prop51ColorIndex
 90
      256
102
RTVSPost2010Prop51ColorRGB
 90
-16777216
102
RTVSPost2010PropOp51
 70
     0
102
RTVSPost2010Prop52
140
1.0
102
RTVSPost2010PropOp52
 70
     0
102
RTVSPost2010Prop53
 90
        2
102
RTVSPost2010PropOp53
 70
     1
102
RTVSPost2010Prop54
  1
strokes_ogs.tif
102
RTVSPost2010PropOp54
 70
     1
102
RTVSPost2010Prop55
280
     0
102
RTVSPost2010PropOp55
 70
     1
102
RTVSPost2010Prop56
140
1.0
102
RTVSPost2010PropOp56
 70
     1
102
RTVSPost2010Prop57
140
1.0
102
RTVSPost2010PropOp57
 70
     1
  0
XRECORD
  5
B9
102
{ACAD_REACTORS
330
B8
102
}
330
B8
100
AcDbXrecord
280
     1
102
RTVSPost2010Prop28
280
     0
102
RTVSPost2010PropOp28
 70
     1
102
RTVSPost2010Prop29
280
     1
102
RTVSPost2010PropOp29
 70
     1
102
RTVSPost2010Prop30
280
     1
102
RTVSPost2010PropOp30
 70
     1
102
RTVSPost2010Prop31
280
     0
102
RTVSPost2010PropOp31
 70
     1
102
RTVSPost2010Prop32
280
     0
102
RTVSPost2010PropOp32
 70
     1
102
RTVSPost2010Prop33
280
     0
102
RTVSPost2010PropOp33
 70
     1
102
RTVSPost2010Prop34
280
     0
102
RTVSPost2010PropOp34
 70
     1
102
RTVSPost2010Prop35
280
     0
102
RTVSPost2010PropOp35
 70
     1
102
RTVSPost2010Prop36
280
     0
102
RTVSPost2010PropOp36
 70
     1
102
RTVSPost2010Prop37
 90
       50
102
RTVSPost2010PropOp37
 70
     1
102
RTVSPost2010Prop38
140
0.0
102
RTVSPost2010PropOp38
 70
     1
102
RTVSPost2010Prop39
140
1.0
102
RTVSPost2010PropOp39
 70
     1
102
RTVSPost2010Prop40
 90
        0
102
RTVSPost2010PropOp40
 70
     1
102
RTVSPost2010Prop41ColorIndex
 90
       18
102
RTVSPost2010Prop41ColorRGB
 90
        0
102
RTVSPost2010PropOp41
 70
     1
102
RTVSPost2010Prop42
 90
       50
102
RTVSPost2010PropOp42
 70
     1
102
RTVSPost2010Prop43
 90
        3
102
RTVSPost2010PropOp43
 70
     1
102
RTVSPost2010Prop44ColorIndex
 90
        5
102
RTVSPost2010Prop44ColorRGB
 90
      255
102
RTVSPost2010PropOp44
 70
     1
102
RTVSPost2010Prop45
280
     0
102
RTVSPost2010PropOp45
 70
     1
102
RTVSPost2010Prop46
 90
       50
102
RTVSPost2010PropOp46
 70
     1
102
RTVSPost2010Prop47
 90
       50
102
RTVSPost2010PropOp47
 70
     1
102
RTVSPost2010Prop48
 90
       50
102
RTVSPost2010PropOp48
 70
     1
102
RTVSPost2010Prop49
280
     0
102
RTVSPost2010PropOp49
 70
     1
102
RTVSPost2010Prop50
 90
       50
102
RTVSPost2010PropOp50
 70
     1
102
RTVSPost2010Prop51ColorIndex
 90
      256
102
RTVSPost2010Prop51ColorRGB
 90
-16777216
102
RTVSPost2010PropOp51
 70
     0
102
RTVSPost2010Prop52
140
1.0
102
RTVSPost2010PropOp52
 70
     0
102
RTVSPost2010Prop53
 90
        2
102
RTVSPost2010PropOp53
 70
     1
102
RTVSPost2010Prop54
  1
strokes_ogs.tif
102
RTVSPost2010PropOp54
 70
     1
102
RTVSPost2010Prop55
280
     0
102
RTVSPost2010PropOp55
 70
     1
102
RTVSPost2010Prop56
140
1.0
102
RTVSPost2010PropOp56
 70
     1
102
RTVSPost2010Prop57
140
1.0
102
RTVSPost2010PropOp57
 70
     1
  0
XRECORD
  5
D5
102
{ACAD_REACTORS
330
D4
102
}
330
D4
100
AcDbXrecord
280
     1
102
RTVSPost2010Prop28
280
     0
102
RTVSPost2010PropOp28
 70
     0
102
RTVSPost2010Prop29
280
     1
102
RTVSPost2010PropOp29
 70
     0
102
RTVSPost2010Prop30
280
     1
102
RTVSPost2010PropOp30
 70
     0
102
RTVSPost2010Prop31
280
     0
102
RTVSPost2010PropOp31
 70
     0
102
RTVSPost2010Prop32
280
     0
102
RTVSPost2010PropOp32
 70
     0
102
RTVSPost2010Prop33
280
     0
102
RTVSPost2010PropOp33
 70
     0
102
RTVSPost2010Prop34
280
     0
102
RTVSPost2010PropOp34
 70
     0
102
RTVSPost2010Prop35
280
     0
102
RTVSPost2010PropOp35
 70
     0
102
RTVSPost2010Prop36
280
     0
102
RTVSPost2010PropOp36
 70
     0
102
RTVSPost2010Prop37
 90
       50
102
RTVSPost2010PropOp37
 70
     0
102
RTVSPost2010Prop38
140
0.0
102
RTVSPost2010PropOp38
 70
     0
102
RTVSPost2010Prop39
140
1.0
102
RTVSPost2010PropOp39
 70
     0
102
RTVSPost2010Prop40
 90
        0
102
RTVSPost2010PropOp40
 70
     0
102
RTVSPost2010Prop41ColorIndex
 90
       18
102
RTVSPost2010Prop41ColorRGB
 90
        0
102
RTVSPost2010PropOp41
 70
     0
102
RTVSPost2010Prop42
 90
       50
102
RTVSPost2010PropOp42
 70
     0
102
RTVSPost2010Prop43
 90
        3
102
RTVSPost2010PropOp43
 70
     0
102
RTVSPost2010Prop44ColorIndex
 90
        5
102
RTVSPost2010Prop44ColorRGB
 90
      255
102
RTVSPost2010PropOp44
 70
     0
102
RTVSPost2010Prop45
280
     0
102
RTVSPost2010PropOp45
 70
     0
102
RTVSPost2010Prop46
 90
       50
102
RTVSPost2010PropOp46
 70
     0
102
RTVSPost2010Prop47
 90
       50
102
RTVSPost2010PropOp47
 70
     0
102
RTVSPost2010Prop48
 90
       50
102
RTVSPost2010PropOp48
 70
     0
102
RTVSPost2010Prop49
280
     0
102
RTVSPost2010PropOp49
 70
     0
102
RTVSPost2010Prop50
 90
       50
102
RTVSPost2010PropOp50
 70
     0
102
RTVSPost2010Prop51ColorIndex
 90
      256
102
RTVSPost2010Prop51ColorRGB
 90
-16777216
102
RTVSPost2010PropOp51
 70
     0
102
RTVSPost2010Prop52
140
1.0
102
RTVSPost2010PropOp52
 70
     0
102
RTVSPost2010Prop53
 90
        2
102
RTVSPost2010PropOp53
 70
     0
102
RTVSPost2010Prop54
  1
strokes_ogs.tif
102
RTVSPost2010PropOp54
 70
     0
102
RTVSPost2010Prop55
280
     0
102
RTVSPost2010PropOp55
 70
     0
102
RTVSPost2010Prop56
140
1.0
102
RTVSPost2010PropOp56
 70
     0
102
RTVSPost2010Prop57
140
1.0
102
RTVSPost2010PropOp57
 70
     0
  0
XRECORD
  5
C5
102
{ACAD_REACTORS
330
C4
102
}
330
C4
100
AcDbXrecord
280
     1
102
RTVSPost2010Prop28
280
     0
102
RTVSPost2010PropOp28
 70
     1
102
RTVSPost2010Prop29
280
     1
102
RTVSPost2010PropOp29
 70
     1
102
RTVSPost2010Prop30
280
     1
102
RTVSPost2010PropOp30
 70
     1
102
RTVSPost2010Prop31
280
     0
102
RTVSPost2010PropOp31
 70
     1
102
RTVSPost2010Prop32
280
     0
102
RTVSPost2010PropOp32
 70
     1
102
RTVSPost2010Prop33
280
     0
102
RTVSPost2010PropOp33
 70
     1
102
RTVSPost2010Prop34
280
     0
102
RTVSPost2010PropOp34
 70
     1
102
RTVSPost2010Prop35
280
     0
102
RTVSPost2010PropOp35
 70
     1
102
RTVSPost2010Prop36
280
     0
102
RTVSPost2010PropOp36
 70
     1
102
RTVSPost2010Prop37
 90
       50
102
RTVSPost2010PropOp37
 70
     1
102
RTVSPost2010Prop38
140
0.0
102
RTVSPost2010PropOp38
 70
     1
102
RTVSPost2010Prop39
140
1.0
102
RTVSPost2010PropOp39
 70
     1
102
RTVSPost2010Prop40
 90
        0
102
RTVSPost2010PropOp40
 70
     1
102
RTVSPost2010Prop41ColorIndex
 90
       18
102
RTVSPost2010Prop41ColorRGB
 90
        0
102
RTVSPost2010PropOp41
 70
     1
102
RTVSPost2010Prop42
 90
       50
102
RTVSPost2010PropOp42
 70
     1
102
RTVSPost2010Prop43
 90
        3
102
RTVSPost2010PropOp43
 70
     1
102
RTVSPost2010Prop44ColorIndex
 90
        5
102
RTVSPost2010Prop44ColorRGB
 90
      255
102
RTVSPost2010PropOp44
 70
     1
102
RTVSPost2010Prop45
280
     0
102
RTVSPost2010PropOp45
 70
     1
102
RTVSPost2010Prop46
 90
       50
102
RTVSPost2010PropOp46
 70
     1
102
RTVSPost2010Prop47
 90
       50
102
RTVSPost2010PropOp47
 70
     1
102
RTVSPost2010Prop48
 90
       50
102
RTVSPost2010PropOp48
 70
     1
102
RTVSPost2010Prop49
280
     0
102
RTVSPost2010PropOp49
 70
     1
102
RTVSPost2010Prop50
 90
       50
102
RTVSPost2010PropOp50
 70
     1
102
RTVSPost2010Prop51ColorIndex
 90
      256
102
RTVSPost2010Prop51ColorRGB
 90
-16777216
102
RTVSPost2010PropOp51
 70
     0
102
RTVSPost2010Prop52
140
1.0
102
RTVSPost2010PropOp52
 70
     0
102
RTVSPost2010Prop53
 90
        2
102
RTVSPost2010PropOp53
 70
     1
102
RTVSPost2010Prop54
  1
strokes_ogs.tif
102
RTVSPost2010PropOp54
 70
     1
102
RTVSPost2010Prop55
280
     0
102
RTVSPost2010PropOp55
 70
     1
102
RTVSPost2010Prop56
140
1.0
102
RTVSPost2010PropOp56
 70
     1
102
RTVSPost2010Prop57
140
1.0
102
RTVSPost2010PropOp57
 70
     1
  0
XRECORD
  5
D7
102
{ACAD_REACTORS
330
D6
102
}
330
D6
100
AcDbXrecord
280
     1
102
RTVSPost2010Prop28
280
     0
102
RTVSPost2010PropOp28
 70
     0
102
RTVSPost2010Prop29
280
     1
102
RTVSPost2010PropOp29
 70
     0
102
RTVSPost2010Prop30
280
     1
102
RTVSPost2010PropOp30
 70
     0
102
RTVSPost2010Prop31
280
     0
102
RTVSPost2010PropOp31
 70
     0
102
RTVSPost2010Prop32
280
     0
102
RTVSPost2010PropOp32
 70
     0
102
RTVSPost2010Prop33
280
     0
102
RTVSPost2010PropOp33
 70
     0
102
RTVSPost2010Prop34
280
     0
102
RTVSPost2010PropOp34
 70
     0
102
RTVSPost2010Prop35
280
     0
102
RTVSPost2010PropOp35
 70
     0
102
RTVSPost2010Prop36
280
     0
102
RTVSPost2010PropOp36
 70
     0
102
RTVSPost2010Prop37
 90
       50
102
RTVSPost2010PropOp37
 70
     0
102
RTVSPost2010Prop38
140
0.0
102
RTVSPost2010PropOp38
 70
     0
102
RTVSPost2010Prop39
140
1.0
102
RTVSPost2010PropOp39
 70
     0
102
RTVSPost2010Prop40
 90
        0
102
RTVSPost2010PropOp40
 70
     0
102
RTVSPost2010Prop41ColorIndex
 90
       18
102
RTVSPost2010Prop41ColorRGB
 90
        0
102
RTVSPost2010PropOp41
 70
     0
102
RTVSPost2010Prop42
 90
       50
102
RTVSPost2010PropOp42
 70
     0
102
RTVSPost2010Prop43
 90
        3
102
RTVSPost2010PropOp43
 70
     0
102
RTVSPost2010Prop44ColorIndex
 90
        5
102
RTVSPost2010Prop44ColorRGB
 90
      255
102
RTVSPost2010PropOp44
 70
     0
102
RTVSPost2010Prop45
280
     0
102
RTVSPost2010PropOp45
 70
     0
102
RTVSPost2010Prop46
 90
       50
102
RTVSPost2010PropOp46
 70
     0
102
RTVSPost2010Prop47
 90
       50
102
RTVSPost2010PropOp47
 70
     0
102
RTVSPost2010Prop48
 90
       50
102
RTVSPost2010PropOp48
 70
     0
102
RTVSPost2010Prop49
280
     0
102
RTVSPost2010PropOp49
 70
     0
102
RTVSPost2010Prop50
 90
       50
102
RTVSPost2010PropOp50
 70
     0
102
RTVSPost2010Prop51ColorIndex
 90
      256
102
RTVSPost2010Prop51ColorRGB
 90
-16777216
102
RTVSPost2010PropOp51
 70
     0
102
RTVSPost2010Prop52
140
1.0
102
RTVSPost2010PropOp52
 70
     0
102
RTVSPost2010Prop53
 90
        2
102
RTVSPost2010PropOp53
 70
     0
102
RTVSPost2010Prop54
  1
strokes_ogs.tif
102
RTVSPost2010PropOp54
 70
     0
102
RTVSPost2010Prop55
280
     0
102
RTVSPost2010PropOp55
 70
     0
102
RTVSPost2010Prop56
140
1.0
102
RTVSPost2010PropOp56
 70
     0
102
RTVSPost2010Prop57
140
1.0
102
RTVSPost2010PropOp57
 70
     0
  0
XRECORD
  5
BD
102
{ACAD_REACTORS
330
BC
102
}
330
BC
100
AcDbXrecord
280
     1
102
RTVSPost2010Prop28
280
     0
102
RTVSPost2010PropOp28
 70
     1
102
RTVSPost2010Prop29
280
     1
102
RTVSPost2010PropOp29
 70
     1
102
RTVSPost2010Prop30
280
     1
102
RTVSPost2010PropOp30
 70
     1
102
RTVSPost2010Prop31
280
     0
102
RTVSPost2010PropOp31
 70
     1
102
RTVSPost2010Prop32
280
     0
102
RTVSPost2010PropOp32
 70
     1
102
RTVSPost2010Prop33
280
     0
102
RTVSPost2010PropOp33
 70
     1
102
RTVSPost2010Prop34
280
     0
102
RTVSPost2010PropOp34
 70
     1
102
RTVSPost2010Prop35
280
     0
102
RTVSPost2010PropOp35
 70
     1
102
RTVSPost2010Prop36
280
     0
102
RTVSPost2010PropOp36
 70
     1
102
RTVSPost2010Prop37
 90
       50
102
RTVSPost2010PropOp37
 70
     1
102
RTVSPost2010Prop38
140
0.0
102
RTVSPost2010PropOp38
 70
     1
102
RTVSPost2010Prop39
140
1.0
102
RTVSPost2010PropOp39
 70
     1
102
RTVSPost2010Prop40
 90
        0
102
RTVSPost2010PropOp40
 70
     1
102
RTVSPost2010Prop41ColorIndex
 90
       18
102
RTVSPost2010Prop41ColorRGB
 90
        0
102
RTVSPost2010PropOp41
 70
     1
102
RTVSPost2010Prop42
 90
       50
102
RTVSPost2010PropOp42
 70
     1
102
RTVSPost2010Prop43
 90
        3
102
RTVSPost2010PropOp43
 70
     1
102
RTVSPost2010Prop44ColorIndex
 90
        5
102
RTVSPost2010Prop44ColorRGB
 90
      255
102
RTVSPost2010PropOp44
 70
     1
102
RTVSPost2010Prop45
280
     0
102
RTVSPost2010PropOp45
 70
     1
102
RTVSPost2010Prop46
 90
       50
102
RTVSPost2010PropOp46
 70
     1
102
RTVSPost2010Prop47
 90
       50
102
RTVSPost2010PropOp47
 70
     1
102
RTVSPost2010Prop48
 90
       50
102
RTVSPost2010PropOp48
 70
     1
102
RTVSPost2010Prop49
280
     0
102
RTVSPost2010PropOp49
 70
     1
102
RTVSPost2010Prop50
 90
       50
102
RTVSPost2010PropOp50
 70
     1
102
RTVSPost2010Prop51ColorIndex
 90
      256
102
RTVSPost2010Prop51ColorRGB
 90
-16777216
102
RTVSPost2010PropOp51
 70
     0
102
RTVSPost2010Prop52
140
1.0
102
RTVSPost2010PropOp52
 70
     0
102
RTVSPost2010Prop53
 90
        2
102
RTVSPost2010PropOp53
 70
     1
102
RTVSPost2010Prop54
  1
strokes_ogs.tif
102
RTVSPost2010PropOp54
 70
     1
102
RTVSPost2010Prop55
280
     0
102
RTVSPost2010PropOp55
 70
     1
102
RTVSPost2010Prop56
140
1.0
102
RTVSPost2010PropOp56
 70
     1
102
RTVSPost2010Prop57
140
1.0
102
RTVSPost2010PropOp57
 70
     1
  0
XRECORD
  5
D3
102
{ACAD_REACTORS
330
D2
102
}
330
D2
100
AcDbXrecord
280
     1
102
RTVSPost2010Prop28
280
     0
102
RTVSPost2010PropOp28
 70
     1
102
RTVSPost2010Prop29
280
     1
102
RTVSPost2010PropOp29
 70
     1
102
RTVSPost2010Prop30
280
     1
102
RTVSPost2010PropOp30
 70
     1
102
RTVSPost2010Prop31
280
     0
102
RTVSPost2010PropOp31
 70
     1
102
RTVSPost2010Prop32
280
     0
102
RTVSPost2010PropOp32
 70
     1
102
RTVSPost2010Prop33
280
     0
102
RTVSPost2010PropOp33
 70
     1
102
RTVSPost2010Prop34
280
     0
102
RTVSPost2010PropOp34
 70
     1
102
RTVSPost2010Prop35
280
     0
102
RTVSPost2010PropOp35
 70
     1
102
RTVSPost2010Prop36
280
     0
102
RTVSPost2010PropOp36
 70
     1
102
RTVSPost2010Prop37
 90
       50
102
RTVSPost2010PropOp37
 70
     1
102
RTVSPost2010Prop38
140
0.0
102
RTVSPost2010PropOp38
 70
     1
102
RTVSPost2010Prop39
140
1.0
102
RTVSPost2010PropOp39
 70
     1
102
RTVSPost2010Prop40
 90
        0
102
RTVSPost2010PropOp40
 70
     1
102
RTVSPost2010Prop41ColorIndex
 90
       18
102
RTVSPost2010Prop41ColorRGB
 90
        0
102
RTVSPost2010PropOp41
 70
     1
102
RTVSPost2010Prop42
 90
       50
102
RTVSPost2010PropOp42
 70
     1
102
RTVSPost2010Prop43
 90
        3
102
RTVSPost2010PropOp43
 70
     1
102
RTVSPost2010Prop44ColorIndex
 90
        5
102
RTVSPost2010Prop44ColorRGB
 90
      255
102
RTVSPost2010PropOp44
 70
     1
102
RTVSPost2010Prop45
280
     0
102
RTVSPost2010PropOp45
 70
     1
102
RTVSPost2010Prop46
 90
       50
102
RTVSPost2010PropOp46
 70
     1
102
RTVSPost2010Prop47
 90
       50
102
RTVSPost2010PropOp47
 70
     1
102
RTVSPost2010Prop48
 90
       50
102
RTVSPost2010PropOp48
 70
     1
102
RTVSPost2010Prop49
280
     0
102
RTVSPost2010PropOp49
 70
     1
102
RTVSPost2010Prop50
 90
       50
102
RTVSPost2010PropOp50
 70
     1
102
RTVSPost2010Prop51ColorIndex
 90
      256
102
RTVSPost2010Prop51ColorRGB
 90
-16777216
102
RTVSPost2010PropOp51
 70
     0
102
RTVSPost2010Prop52
140
1.0
102
RTVSPost2010PropOp52
 70
     0
102
RTVSPost2010Prop53
 90
        2
102
RTVSPost2010PropOp53
 70
     1
102
RTVSPost2010Prop54
  1
strokes_ogs.tif
102
RTVSPost2010PropOp54
 70
     1
102
RTVSPost2010Prop55
280
     0
102
RTVSPost2010PropOp55
 70
     1
102
RTVSPost2010Prop56
140
1.0
102
RTVSPost2010PropOp56
 70
     1
102
RTVSPost2010Prop57
140
1.0
102
RTVSPost2010PropOp57
 70
     1
  0
XRECORD
  5
D1
102
{ACAD_REACTORS
330
D0
102
}
330
D0
100
AcDbXrecord
280
     1
102
RTVSPost2010Prop28
280
     0
102
RTVSPost2010PropOp28
 70
     1
102
RTVSPost2010Prop29
280
     1
102
RTVSPost2010PropOp29
 70
     1
102
RTVSPost2010Prop30
280
     1
102
RTVSPost2010PropOp30
 70
     1
102
RTVSPost2010Prop31
280
     0
102
RTVSPost2010PropOp31
 70
     1
102
RTVSPost2010Prop32
280
     0
102
RTVSPost2010PropOp32
 70
     1
102
RTVSPost2010Prop33
280
     0
102
RTVSPost2010PropOp33
 70
     1
102
RTVSPost2010Prop34
280
     0
102
RTVSPost2010PropOp34
 70
     1
102
RTVSPost2010Prop35
280
     0
102
RTVSPost2010PropOp35
 70
     1
102
RTVSPost2010Prop36
280
     0
102
RTVSPost2010PropOp36
 70
     1
102
RTVSPost2010Prop37
 90
       50
102
RTVSPost2010PropOp37
 70
     1
102
RTVSPost2010Prop38
140
0.0
102
RTVSPost2010PropOp38
 70
     1
102
RTVSPost2010Prop39
140
1.0
102
RTVSPost2010PropOp39
 70
     1
102
RTVSPost2010Prop40
 90
        0
102
RTVSPost2010PropOp40
 70
     1
102
RTVSPost2010Prop41ColorIndex
 90
       18
102
RTVSPost2010Prop41ColorRGB
 90
        0
102
RTVSPost2010PropOp41
 70
     1
102
RTVSPost2010Prop42
 90
       50
102
RTVSPost2010PropOp42
 70
     1
102
RTVSPost2010Prop43
 90
        3
102
RTVSPost2010PropOp43
 70
     1
102
RTVSPost2010Prop44ColorIndex
 90
        5
102
RTVSPost2010Prop44ColorRGB
 90
      255
102
RTVSPost2010PropOp44
 70
     1
102
RTVSPost2010Prop45
280
     0
102
RTVSPost2010PropOp45
 70
     1
102
RTVSPost2010Prop46
 90
       50
102
RTVSPost2010PropOp46
 70
     1
102
RTVSPost2010Prop47
 90
       50
102
RTVSPost2010PropOp47
 70
     1
102
RTVSPost2010Prop48
 90
       50
102
RTVSPost2010PropOp48
 70
     1
102
RTVSPost2010Prop49
280
     0
102
RTVSPost2010PropOp49
 70
     1
102
RTVSPost2010Prop50
 90
       50
102
RTVSPost2010PropOp50
 70
     1
102
RTVSPost2010Prop51ColorIndex
 90
      256
102
RTVSPost2010Prop51ColorRGB
 90
-16777216
102
RTVSPost2010PropOp51
 70
     0
102
RTVSPost2010Prop52
140
1.0
102
RTVSPost2010PropOp52
 70
     0
102
RTVSPost2010Prop53
 90
        2
102
RTVSPost2010PropOp53
 70
     1
102
RTVSPost2010Prop54
  1
strokes_ogs.tif
102
RTVSPost2010PropOp54
 70
     1
102
RTVSPost2010Prop55
280
     0
102
RTVSPost2010PropOp55
 70
     1
102
RTVSPost2010Prop56
140
1.0
102
RTVSPost2010PropOp56
 70
     1
102
RTVSPost2010Prop57
140
1.0
102
RTVSPost2010PropOp57
 70
     1
  0
XRECORD
  5
CB
102
{ACAD_REACTORS
330
CA
102
}
330
CA
100
AcDbXrecord
280
     1
102
RTVSPost2010Prop28
280
     0
102
RTVSPost2010PropOp28
 70
     1
102
RTVSPost2010Prop29
280
     1
102
RTVSPost2010PropOp29
 70
     1
102
RTVSPost2010Prop30
280
     1
102
RTVSPost2010PropOp30
 70
     1
102
RTVSPost2010Prop31
280
     0
102
RTVSPost2010PropOp31
 70
     1
102
RTVSPost2010Prop32
280
     0
102
RTVSPost2010PropOp32
 70
     1
102
RTVSPost2010Prop33
280
     0
102
RTVSPost2010PropOp33
 70
     1
102
RTVSPost2010Prop34
280
     0
102
RTVSPost2010PropOp34
 70
     1
102
RTVSPost2010Prop35
280
     0
102
RTVSPost2010PropOp35
 70
     1
102
RTVSPost2010Prop36
280
     0
102
RTVSPost2010PropOp36
 70
     1
102
RTVSPost2010Prop37
 90
       50
102
RTVSPost2010PropOp37
 70
     1
102
RTVSPost2010Prop38
140
0.0
102
RTVSPost2010PropOp38
 70
     1
102
RTVSPost2010Prop39
140
1.0
102
RTVSPost2010PropOp39
 70
     1
102
RTVSPost2010Prop40
 90
        0
102
RTVSPost2010PropOp40
 70
     1
102
RTVSPost2010Prop41ColorIndex
 90
       18
102
RTVSPost2010Prop41ColorRGB
 90
        0
102
RTVSPost2010PropOp41
 70
     1
102
RTVSPost2010Prop42
 90
       50
102
RTVSPost2010PropOp42
 70
     1
102
RTVSPost2010Prop43
 90
        3
102
RTVSPost2010PropOp43
 70
     1
102
RTVSPost2010Prop44ColorIndex
 90
        5
102
RTVSPost2010Prop44ColorRGB
 90
      255
102
RTVSPost2010PropOp44
 70
     1
102
RTVSPost2010Prop45
280
     0
102
RTVSPost2010PropOp45
 70
     1
102
RTVSPost2010Prop46
 90
       50
102
RTVSPost2010PropOp46
 70
     1
102
RTVSPost2010Prop47
 90
       50
102
RTVSPost2010PropOp47
 70
     1
102
RTVSPost2010Prop48
 90
       50
102
RTVSPost2010PropOp48
 70
     1
102
RTVSPost2010Prop49
280
     0
102
RTVSPost2010PropOp49
 70
     1
102
RTVSPost2010Prop50
 90
       50
102
RTVSPost2010PropOp50
 70
     1
102
RTVSPost2010Prop51ColorIndex
 90
      256
102
RTVSPost2010Prop51ColorRGB
 90
-16777216
102
RTVSPost2010PropOp51
 70
     0
102
RTVSPost2010Prop52
140
1.0
102
RTVSPost2010PropOp52
 70
     0
102
RTVSPost2010Prop53
 90
        2
102
RTVSPost2010PropOp53
 70
     1
102
RTVSPost2010Prop54
  1
strokes_ogs.tif
102
RTVSPost2010PropOp54
 70
     1
102
RTVSPost2010Prop55
280
     0
102
RTVSPost2010PropOp55
 70
     1
102
RTVSPost2010Prop56
140
1.0
102
RTVSPost2010PropOp56
 70
     1
102
RTVSPost2010Prop57
140
1.0
102
RTVSPost2010PropOp57
 70
     1
  0
XRECORD
  5
CD
102
{ACAD_REACTORS
330
CC
102
}
330
CC
100
AcDbXrecord
280
     1
102
RTVSPost2010Prop28
280
     0
102
RTVSPost2010PropOp28
 70
     1
102
RTVSPost2010Prop29
280
     1
102
RTVSPost2010PropOp29
 70
     1
102
RTVSPost2010Prop30
280
     1
102
RTVSPost2010PropOp30
 70
     1
102
RTVSPost2010Prop31
280
     0
102
RTVSPost2010PropOp31
 70
     1
102
RTVSPost2010Prop32
280
     0
102
RTVSPost2010PropOp32
 70
     1
102
RTVSPost2010Prop33
280
     0
102
RTVSPost2010PropOp33
 70
     1
102
RTVSPost2010Prop34
280
     0
102
RTVSPost2010PropOp34
 70
     1
102
RTVSPost2010Prop35
280
     0
102
RTVSPost2010PropOp35
 70
     1
102
RTVSPost2010Prop36
280
     0
102
RTVSPost2010PropOp36
 70
     1
102
RTVSPost2010Prop37
 90
       50
102
RTVSPost2010PropOp37
 70
     1
102
RTVSPost2010Prop38
140
0.0
102
RTVSPost2010PropOp38
 70
     1
102
RTVSPost2010Prop39
140
1.0
102
RTVSPost2010PropOp39
 70
     1
102
RTVSPost2010Prop40
 90
        0
102
RTVSPost2010PropOp40
 70
     1
102
RTVSPost2010Prop41ColorIndex
 90
       18
102
RTVSPost2010Prop41ColorRGB
 90
        0
102
RTVSPost2010PropOp41
 70
     1
102
RTVSPost2010Prop42
 90
       50
102
RTVSPost2010PropOp42
 70
     1
102
RTVSPost2010Prop43
 90
        3
102
RTVSPost2010PropOp43
 70
     1
102
RTVSPost2010Prop44ColorIndex
 90
        5
102
RTVSPost2010Prop44ColorRGB
 90
      255
102
RTVSPost2010PropOp44
 70
     1
102
RTVSPost2010Prop45
280
     0
102
RTVSPost2010PropOp45
 70
     1
102
RTVSPost2010Prop46
 90
       50
102
RTVSPost2010PropOp46
 70
     1
102
RTVSPost2010Prop47
 90
       50
102
RTVSPost2010PropOp47
 70
     1
102
RTVSPost2010Prop48
 90
       50
102
RTVSPost2010PropOp48
 70
     1
102
RTVSPost2010Prop49
280
     0
102
RTVSPost2010PropOp49
 70
     1
102
RTVSPost2010Prop50
 90
       50
102
RTVSPost2010PropOp50
 70
     1
102
RTVSPost2010Prop51ColorIndex
 90
      256
102
RTVSPost2010Prop51ColorRGB
 90
-16777216
102
RTVSPost2010PropOp51
 70
     0
102
RTVSPost2010Prop52
140
1.0
102
RTVSPost2010PropOp52
 70
     0
102
RTVSPost2010Prop53
 90
        2
102
RTVSPost2010PropOp53
 70
     1
102
RTVSPost2010Prop54
  1
strokes_ogs.tif
102
RTVSPost2010PropOp54
 70
     1
102
RTVSPost2010Prop55
280
     0
102
RTVSPost2010PropOp55
 70
     1
102
RTVSPost2010Prop56
140
1.0
102
RTVSPost2010PropOp56
 70
     1
102
RTVSPost2010Prop57
140
1.0
102
RTVSPost2010PropOp57
 70
     1
  0
XRECORD
  5
C3
102
{ACAD_REACTORS
330
C2
102
}
330
C2
100
AcDbXrecord
280
     1
102
RTVSPost2010Prop28
280
     0
102
RTVSPost2010PropOp28
 70
     1
102
RTVSPost2010Prop29
280
     1
102
RTVSPost2010PropOp29
 70
     1
102
RTVSPost2010Prop30
280
     1
102
RTVSPost2010PropOp30
 70
     1
102
RTVSPost2010Prop31
280
     0
102
RTVSPost2010PropOp31
 70
     1
102
RTVSPost2010Prop32
280
     0
102
RTVSPost2010PropOp32
 70
     1
102
RTVSPost2010Prop33
280
     0
102
RTVSPost2010PropOp33
 70
     1
102
RTVSPost2010Prop34
280
     0
102
RTVSPost2010PropOp34
 70
     1
102
RTVSPost2010Prop35
280
     0
102
RTVSPost2010PropOp35
 70
     1
102
RTVSPost2010Prop36
280
     0
102
RTVSPost2010PropOp36
 70
     1
102
RTVSPost2010Prop37
 90
       50
102
RTVSPost2010PropOp37
 70
     1
102
RTVSPost2010Prop38
140
0.0
102
RTVSPost2010PropOp38
 70
     1
102
RTVSPost2010Prop39
140
1.0
102
RTVSPost2010PropOp39
 70
     1
102
RTVSPost2010Prop40
 90
        0
102
RTVSPost2010PropOp40
 70
     1
102
RTVSPost2010Prop41ColorIndex
 90
       18
102
RTVSPost2010Prop41ColorRGB
 90
        0
102
RTVSPost2010PropOp41
 70
     1
102
RTVSPost2010Prop42
 90
       50
102
RTVSPost2010PropOp42
 70
     1
102
RTVSPost2010Prop43
 90
        3
102
RTVSPost2010PropOp43
 70
     1
102
RTVSPost2010Prop44ColorIndex
 90
        5
102
RTVSPost2010Prop44ColorRGB
 90
      255
102
RTVSPost2010PropOp44
 70
     1
102
RTVSPost2010Prop45
280
     0
102
RTVSPost2010PropOp45
 70
     1
102
RTVSPost2010Prop46
 90
       50
102
RTVSPost2010PropOp46
 70
     1
102
RTVSPost2010Prop47
 90
       50
102
RTVSPost2010PropOp47
 70
     1
102
RTVSPost2010Prop48
 90
       50
102
RTVSPost2010PropOp48
 70
     1
102
RTVSPost2010Prop49
280
     0
102
RTVSPost2010PropOp49
 70
     1
102
RTVSPost2010Prop50
 90
       50
102
RTVSPost2010PropOp50
 70
     1
102
RTVSPost2010Prop51ColorIndex
 90
      256
102
RTVSPost2010Prop51ColorRGB
 90
-16777216
102
RTVSPost2010PropOp51
 70
     0
102
RTVSPost2010Prop52
140
1.0
102
RTVSPost2010PropOp52
 70
     0
102
RTVSPost2010Prop53
 90
        2
102
RTVSPost2010PropOp53
 70
     1
102
RTVSPost2010Prop54
  1
strokes_ogs.tif
102
RTVSPost2010PropOp54
 70
     1
102
RTVSPost2010Prop55
280
     0
102
RTVSPost2010PropOp55
 70
     1
102
RTVSPost2010Prop56
140
1.0
102
RTVSPost2010PropOp56
 70
     1
102
RTVSPost2010Prop57
140
1.0
102
RTVSPost2010PropOp57
 70
     1
  0
XRECORD
  5
B7
102
{ACAD_REACTORS
330
B6
102
}
330
B6
100
AcDbXrecord
280
     1
102
RTVSPost2010Prop28
280
     0
102
RTVSPost2010PropOp28
 70
     1
102
RTVSPost2010Prop29
280
     1
102
RTVSPost2010PropOp29
 70
     1
102
RTVSPost2010Prop30
280
     1
102
RTVSPost2010PropOp30
 70
     1
102
RTVSPost2010Prop31
280
     0
102
RTVSPost2010PropOp31
 70
     1
102
RTVSPost2010Prop32
280
     0
102
RTVSPost2010PropOp32
 70
     1
102
RTVSPost2010Prop33
280
     0
102
RTVSPost2010PropOp33
 70
     1
102
RTVSPost2010Prop34
280
     0
102
RTVSPost2010PropOp34
 70
     1
102
RTVSPost2010Prop35
280
     0
102
RTVSPost2010PropOp35
 70
     1
102
RTVSPost2010Prop36
280
     0
102
RTVSPost2010PropOp36
 70
     1
102
RTVSPost2010Prop37
 90
       50
102
RTVSPost2010PropOp37
 70
     1
102
RTVSPost2010Prop38
140
0.0
102
RTVSPost2010PropOp38
 70
     1
102
RTVSPost2010Prop39
140
1.0
102
RTVSPost2010PropOp39
 70
     1
102
RTVSPost2010Prop40
 90
        0
102
RTVSPost2010PropOp40
 70
     1
102
RTVSPost2010Prop41ColorIndex
 90
       18
102
RTVSPost2010Prop41ColorRGB
 90
        0
102
RTVSPost2010PropOp41
 70
     1
102
RTVSPost2010Prop42
 90
       50
102
RTVSPost2010PropOp42
 70
     1
102
RTVSPost2010Prop43
 90
        3
102
RTVSPost2010PropOp43
 70
     1
102
RTVSPost2010Prop44ColorIndex
 90
        5
102
RTVSPost2010Prop44ColorRGB
 90
      255
102
RTVSPost2010PropOp44
 70
     1
102
RTVSPost2010Prop45
280
     0
102
RTVSPost2010PropOp45
 70
     1
102
RTVSPost2010Prop46
 90
       50
102
RTVSPost2010PropOp46
 70
     1
102
RTVSPost2010Prop47
 90
       50
102
RTVSPost2010PropOp47
 70
     1
102
RTVSPost2010Prop48
 90
       50
102
RTVSPost2010PropOp48
 70
     1
102
RTVSPost2010Prop49
280
     0
102
RTVSPost2010PropOp49
 70
     1
102
RTVSPost2010Prop50
 90
       50
102
RTVSPost2010PropOp50
 70
     1
102
RTVSPost2010Prop51ColorIndex
 90
      256
102
RTVSPost2010Prop51ColorRGB
 90
-16777216
102
RTVSPost2010PropOp51
 70
     0
102
RTVSPost2010Prop52
140
1.0
102
RTVSPost2010PropOp52
 70
     0
102
RTVSPost2010Prop53
 90
        2
102
RTVSPost2010PropOp53
 70
     1
102
RTVSPost2010Prop54
  1
strokes_ogs.tif
102
RTVSPost2010PropOp54
 70
     1
102
RTVSPost2010Prop55
280
     0
102
RTVSPost2010PropOp55
 70
     1
102
RTVSPost2010Prop56
140
1.0
102
RTVSPost2010PropOp56
 70
     1
102
RTVSPost2010Prop57
140
1.0
102
RTVSPost2010PropOp57
 70
     1
  0
XRECORD
  5
CF
102
{ACAD_REACTORS
330
CE
102
}
330
CE
100
AcDbXrecord
280
     1
102
RTVSPost2010Prop28
280
     0
102
RTVSPost2010PropOp28
 70
     1
102
RTVSPost2010Prop29
280
     1
102
RTVSPost2010PropOp29
 70
     1
102
RTVSPost2010Prop30
280
     1
102
RTVSPost2010PropOp30
 70
     1
102
RTVSPost2010Prop31
280
     0
102
RTVSPost2010PropOp31
 70
     1
102
RTVSPost2010Prop32
280
     0
102
RTVSPost2010PropOp32
 70
     1
102
RTVSPost2010Prop33
280
     0
102
RTVSPost2010PropOp33
 70
     1
102
RTVSPost2010Prop34
280
     0
102
RTVSPost2010PropOp34
 70
     1
102
RTVSPost2010Prop35
280
     0
102
RTVSPost2010PropOp35
 70
     1
102
RTVSPost2010Prop36
280
     0
102
RTVSPost2010PropOp36
 70
     1
102
RTVSPost2010Prop37
 90
       50
102
RTVSPost2010PropOp37
 70
     1
102
RTVSPost2010Prop38
140
0.0
102
RTVSPost2010PropOp38
 70
     1
102
RTVSPost2010Prop39
140
1.0
102
RTVSPost2010PropOp39
 70
     1
102
RTVSPost2010Prop40
 90
        0
102
RTVSPost2010PropOp40
 70
     1
102
RTVSPost2010Prop41ColorIndex
 90
       18
102
RTVSPost2010Prop41ColorRGB
 90
        0
102
RTVSPost2010PropOp41
 70
     1
102
RTVSPost2010Prop42
 90
       50
102
RTVSPost2010PropOp42
 70
     1
102
RTVSPost2010Prop43
 90
        3
102
RTVSPost2010PropOp43
 70
     1
102
RTVSPost2010Prop44ColorIndex
 90
        5
102
RTVSPost2010Prop44ColorRGB
 90
      255
102
RTVSPost2010PropOp44
 70
     1
102
RTVSPost2010Prop45
280
     0
102
RTVSPost2010PropOp45
 70
     1
102
RTVSPost2010Prop46
 90
       50
102
RTVSPost2010PropOp46
 70
     1
102
RTVSPost2010Prop47
 90
       50
102
RTVSPost2010PropOp47
 70
     1
102
RTVSPost2010Prop48
 90
       50
102
RTVSPost2010PropOp48
 70
     1
102
RTVSPost2010Prop49
280
     0
102
RTVSPost2010PropOp49
 70
     1
102
RTVSPost2010Prop50
 90
       50
102
RTVSPost2010PropOp50
 70
     1
102
RTVSPost2010Prop51ColorIndex
 90
      256
102
RTVSPost2010Prop51ColorRGB
 90
-16777216
102
RTVSPost2010PropOp51
 70
     0
102
RTVSPost2010Prop52
140
1.0
102
RTVSPost2010PropOp52
 70
     0
102
RTVSPost2010Prop53
 90
        2
102
RTVSPost2010PropOp53
 70
     1
102
RTVSPost2010Prop54
  1
strokes_ogs.tif
102
RTVSPost2010PropOp54
 70
     1
102
RTVSPost2010Prop55
280
     0
102
RTVSPost2010PropOp55
 70
     1
102
RTVSPost2010Prop56
140
1.0
102
RTVSPost2010PropOp56
 70
     1
102
RTVSPost2010Prop57
140
1.0
102
RTVSPost2010PropOp57
 70
     1
  0
ENDSEC
  0
EOF
