  0
SECTION
  2
HEADER
  9
$ACADVER
  1
AC1024
  9
$ACADMAINTVER
 70
   226
  9
$DWGCODEPAGE
  3
ANSI_1252
  9
$INSBASE
 10
0.0
 20
0.0
 30
0.0
  9
$EXTMIN
 10
1.000000000000000E+20
 20
1.000000000000000E+20
 30
1.000000000000000E+20
  9
$EXTMAX
 10
-1.000000000000000E+20
 20
-1.000000000000000E+20
 30
-1.000000000000000E+20
  9
$LIMMIN
 10
0.0
 20
0.0
  9
$LIMMAX
 10
12.0
 20
9.0
  9
$ORTHOMODE
 70
     0
  9
$REGENMODE
 70
     1
  9
$FILLMODE
 70
     1
  9
$QTEXTMODE
 70
     0
  9
$MIRRTEXT
 70
     0
  9
$LTSCALE
 40
1.0
  9
$ATTMODE
 70
     1
  9
$TEXTSIZE
 40
0.2
  9
$TRACEWID
 40
0.05
  9
$TEXTSTYLE
  7
Standard
  9
$CLAYER
  8
0
  9
$CELTYPE
  6
ByLayer
  9
$CECOLOR
 62
   256
  9
$CELTSCALE
 40
1.0
  9
$DISPSILH
 70
     0
  9
$DIMSCALE
 40
1.0
  9
$DIMASZ
 40
0.18
  9
$DIMEXO
 40
0.0625
  9
$DIMDLI
 40
0.38
  9
$DIMRND
 40
0.0
  9
$DIMDLE
 40
0.0
  9
$DIMEXE
 40
0.18
  9
$DIMTP
 40
0.0
  9
$DIMTM
 40
0.0
  9
$DIMTXT
 40
0.18
  9
$DIMCEN
 40
0.09
  9
$DIMTSZ
 40
0.0
  9
$DIMTOL
 70
     0
  9
$DIMLIM
 70
     0
  9
$DIMTIH
 70
     1
  9
$DIMTOH
 70
     1
  9
$DIMSE1
 70
     0
  9
$DIMSE2
 70
     0
  9
$DIMTAD
 70
     0
  9
$DIMZIN
 70
     0
  9
$DIMBLK
  1

  9
$DIMASO
 70
     1
  9
$DIMSHO
 70
     1
  9
$DIMPOST
  1

  9
$DIMAPOST
  1

  9
$DIMALT
 70
     0
  9
$DIMALTD
 70
     2
  9
$DIMALTF
 40
25.4
  9
$DIMLFAC
 40
1.0
  9
$DIMTOFL
 70
     0
  9
$DIMTVP
 40
0.0
  9
$DIMTIX
 70
     0
  9
$DIMSOXD
 70
     0
  9
$DIMSAH
 70
     0
  9
$DIMBLK1
  1

  9
$DIMBLK2
  1

  9
$DIMSTYLE
  2
Standard
  9
$DIMCLRD
 70
     0
  9
$DIMCLRE
 70
     0
  9
$DIMCLRT
 70
     0
  9
$DIMTFAC
 40
1.0
  9
$DIMGAP
 40
0.09
  9
$DIMJUST
 70
     0
  9
$DIMSD1
 70
     0
  9
$DIMSD2
 70
     0
  9
$DIMTOLJ
 70
     1
  9
$DIMTZIN
 70
     0
  9
$DIMALTZ
 70
     0
  9
$DIMALTTZ
 70
     0
  9
$DIMUPT
 70
     0
  9
$DIMDEC
 70
     4
  9
$DIMTDEC
 70
     4
  9
$DIMALTU
 70
     2
  9
$DIMALTTD
 70
     2
  9
$DIMTXSTY
  7
Standard
  9
$DIMAUNIT
 70
     0
  9
$DIMADEC
 70
     0
  9
$DIMALTRND
 40
0.0
  9
$DIMAZIN
 70
     0
  9
$DIMDSEP
 70
    46
  9
$DIMATFIT
 70
     3
  9
$DIMFRAC
 70
     0
  9
$DIMLDRBLK
  1

  9
$DIMLUNIT
 70
     2
  9
$DIMLWD
 70
    -2
  9
$DIMLWE
 70
    -2
  9
$DIMTMOVE
 70
     0
  9
$DIMFXL
 40
1.0
  9
$DIMFXLON
 70
     0
  9
$DIMJOGANG
 40
0.7853981633974483
  9
$DIMTFILL
 70
     0
  9
$DIMTFILLCLR
 70
     0
  9
$DIMARCSYM
 70
     0
  9
$DIMLTYPE
  6

  9
$DIMLTEX1
  6

  9
$DIMLTEX2
  6

  9
$DIMTXTDIRECTION
 70
     0
  9
$LUNITS
 70
     2
  9
$LUPREC
 70
     4
  9
$SKETCHINC
 40
0.1
  9
$FILLETRAD
 40
0.0
  9
$AUNITS
 70
     0
  9
$AUPREC
 70
     0
  9
$MENU
  1
.
  9
$ELEVATION
 40
0.0
  9
$PELEVATION
 40
0.0
  9
$THICKNESS
 40
0.0
  9
$LIMCHECK
 70
     0
  9
$CHAMFERA
 40
0.0
  9
$CHAMFERB
 40
0.0
  9
$CHAMFERC
 40
0.0
  9
$CHAMFERD
 40
0.0
  9
$SKPOLY
 70
     0
  9
$TDCREATE
 40
2459262.893460648
  9
$TDUCREATE
 40
2459263.101793982
  9
$TDUPDATE
 40
2459262.893460648
  9
$TDUUPDATE
 40
2459263.101793982
  9
$TDINDWG
 40
0.0000000000
  9
$TDUSRTIMER
 40
0.0000000000
  9
$USRTIMER
 70
     1
  9
$ANGBASE
 50
0.0
  9
$ANGDIR
 70
     0
  9
$PDMODE
 70
     0
  9
$PDSIZE
 40
0.0
  9
$PLINEWID
 40
0.0
  9
$SPLFRAME
 70
     0
  9
$SPLINETYPE
 70
     6
  9
$SPLINESEGS
 70
     8
  9
$HANDSEED
  5
FF
  9
$SURFTAB1
 70
     6
  9
$SURFTAB2
 70
     6
  9
$SURFTYPE
 70
     6
  9
$SURFU
 70
     6
  9
$SURFV
 70
     6
  9
$UCSBASE
  2

  9
$UCSNAME
  2

  9
$UCSORG
 10
0.0
 20
0.0
 30
0.0
  9
$UCSXDIR
 10
1.0
 20
0.0
 30
0.0
  9
$UCSYDIR
 10
0.0
 20
1.0
 30
0.0
  9
$UCSORTHOREF
  2

  9
$UCSORTHOVIEW
 70
     0
  9
$UCSORGTOP
 10
0.0
 20
0.0
 30
0.0
  9
$UCSORGBOTTOM
 10
0.0
 20
0.0
 30
0.0
  9
$UCSORGLEFT
 10
0.0
 20
0.0
 30
0.0
  9
$UCSORGRIGHT
 10
0.0
 20
0.0
 30
0.0
  9
$UCSORGFRONT
 10
0.0
 20
0.0
 30
0.0
  9
$UCSORGBACK
 10
0.0
 20
0.0
 30
0.0
  9
$PUCSBASE
  2

  9
$PUCSNAME
  2

  9
$PUCSORG
 10
0.0
 20
0.0
 30
0.0
  9
$PUCSXDIR
 10
1.0
 20
0.0
 30
0.0
  9
$PUCSYDIR
 10
0.0
 20
1.0
 30
0.0
  9
$PUCSORTHOREF
  2

  9
$PUCSORTHOVIEW
 70
     0
  9
$PUCSORGTOP
 10
0.0
 20
0.0
 30
0.0
  9
$PUCSORGBOTTOM
 10
0.0
 20
0.0
 30
0.0
  9
$PUCSORGLEFT
 10
0.0
 20
0.0
 30
0.0
  9
$PUCSORGRIGHT
 10
0.0
 20
0.0
 30
0.0
  9
$PUCSORGFRONT
 10
0.0
 20
0.0
 30
0.0
  9
$PUCSORGBACK
 10
0.0
 20
0.0
 30
0.0
  9
$USERI1
 70
     0
  9
$USERI2
 70
     0
  9
$USERI3
 70
     0
  9
$USERI4
 70
     0
  9
$USERI5
 70
     0
  9
$USERR1
 40
0.0
  9
$USERR2
 40
0.0
  9
$USERR3
 40
0.0
  9
$USERR4
 40
0.0
  9
$USERR5
 40
0.0
  9
$WORLDVIEW
 70
     1
  9
$SHADEDGE
 70
     3
  9
$SHADEDIF
 70
    70
  9
$TILEMODE
 70
     1
  9
$MAXACTVP
 70
    64
  9
$PINSBASE
 10
0.0
 20
0.0
 30
0.0
  9
$PLIMCHECK
 70
     0
  9
$PEXTMIN
 10
1.000000000000000E+20
 20
1.000000000000000E+20
 30
1.000000000000000E+20
  9
$PEXTMAX
 10
-1.000000000000000E+20
 20
-1.000000000000000E+20
 30
-1.000000000000000E+20
  9
$PLIMMIN
 10
0.0
 20
0.0
  9
$PLIMMAX
 10
12.0
 20
9.0
  9
$UNITMODE
 70
     0
  9
$VISRETAIN
 70
     1
  9
$PLINEGEN
 70
     0
  9
$PSLTSCALE
 70
     1
  9
$TREEDEPTH
 70
  3020
  9
$CMLSTYLE
  2
Standard
  9
$CMLJUST
 70
     0
  9
$CMLSCALE
 40
1.0
  9
$PROXYGRAPHICS
 70
     1
  9
$MEASUREMENT
 70
     0
  9
$CELWEIGHT
370
    -1
  9
$ENDCAPS
280
     0
  9
$JOINSTYLE
280
     0
  9
$LWDISPLAY
290
     1
  9
$INSUNITS
 70
     0
  9
$HYPERLINKBASE
  1

  9
$STYLESHEET
  1

  9
$XEDIT
290
     1
  9
$CEPSNTYPE
380
     0
  9
$PSTYLEMODE
290
     1
  9
$FINGERPRINTGUID
  2
{F3EC4A14-7760-C844-A435-B7B6A9969930}
  9
$VERSIONGUID
  2
{EA724434-B31B-C34B-8BD7-36F4F3E404EF}
  9
$EXTNAMES
290
     1
  9
$PSVPSCALE
 40
0.0
  9
$OLESTARTUP
290
     0
  9
$SORTENTS
280
   127
  9
$INDEXCTL
280
     0
  9
$HIDETEXT
280
     1
  9
$XCLIPFRAME
280
     2
  9
$HALOGAP
280
     0
  9
$OBSCOLOR
 70
   257
  9
$OBSLTYPE
280
     0
  9
$INTERSECTIONDISPLAY
280
     0
  9
$INTERSECTIONCOLOR
 70
   257
  9
$DIMASSOC
280
     2
  9
$PROJECTNAME
  1

  9
$CAMERADISPLAY
290
     0
  9
$LENSLENGTH
 40
50.0
  9
$CAMERAHEIGHT
 40
0.0
  9
$STEPSPERSEC
 40
2.0
  9
$STEPSIZE
 40
6.0
  9
$3DDWFPREC
 40
2.0
  9
$PSOLWIDTH
 40
0.25
  9
$PSOLHEIGHT
 40
4.0
  9
$LOFTANG1
 40
1.570796326794896
  9
$LOFTANG2
 40
1.570796326794896
  9
$LOFTMAG1
 40
0.0
  9
$LOFTMAG2
 40
0.0
  9
$LOFTPARAM
 70
     7
  9
$LOFTNORMALS
280
     1
  9
$LATITUDE
 40
37.795
  9
$LONGITUDE
 40
-122.394
  9
$NORTHDIRECTION
 40
0.0
  9
$TIMEZONE
 70
 -8000
  9
$LIGHTGLYPHDISPLAY
280
     1
  9
$TILEMODELIGHTSYNCH
280
     1
  9
$CMATERIAL
347
11
  9
$SOLIDHIST
280
     0
  9
$SHOWHIST
280
     1
  9
$DWFFRAME
280
     2
  9
$DGNFRAME
280
     0
  9
$REALWORLDSCALE
290
     1
  9
$INTERFERECOLOR
 62
     1
  9
$INTERFEREOBJVS
345
33
  9
$INTERFEREVPVS
346
30
  9
$CSHADOW
280
     0
  9
$SHADOWPLANELOCATION
 40
0.0
  0
ENDSEC
  0
SECTION
  2
CLASSES
  0
CLASS
  1
ACDBDICTIONARYWDFLT
  2
AcDbDictionaryWithDefault
  3
ObjectDBX Classes
 90
        0
 91
        1
280
     0
281
     0
  0
CLASS
  1
MATERIAL
  2
AcDbMaterial
  3
ObjectDBX Classes
 90
     1153
 91
        3
280
     0
281
     0
  0
CLASS
  1
VISUALSTYLE
  2
AcDbVisualStyle
  3
ObjectDBX Classes
 90
     4095
 91
       24
280
     0
281
     0
  0
CLASS
  1
SCALE
  2
AcDbScale
  3
ObjectDBX Classes
 90
     1153
 91
       17
280
     0
281
     0
  0
CLASS
  1
TABLESTYLE
  2
AcDbTableStyle
  3
ObjectDBX Classes
 90
     4095
 91
        1
280
     0
281
     0
  0
CLASS
  1
MLEADERSTYLE
  2
AcDbMLeaderStyle
  3
ACDB_MLEADERSTYLE_CLASS
 90
     4095
 91
        1
280
     0
281
     0
  0
CLASS
  1
ACDBSECTIONVIEWSTYLE
  2
AcDbSectionViewStyle
  3
ObjectDBX Classes
 90
     1025
 91
        1
280
     0
281
     0
  0
CLASS
  1
ACDBDETAILVIEWSTYLE
  2
AcDbDetailViewStyle
  3
ObjectDBX Classes
 90
     1025
 91
        1
280
     0
281
     0
  0
CLASS
  1
DICTIONARYVAR
  2
AcDbDictionaryVar
  3
ObjectDBX Classes
 90
        0
 91
        5
280
     0
281
     0
  0
CLASS
  1
CELLSTYLEMAP
  2
AcDbCellStyleMap
  3
ObjectDBX Classes
 90
     1152
 91
        1
280
     0
281
     0
  0
ENDSEC
  0
SECTION
  2
TABLES
  0
TABLE
  2
VPORT
  5
8
330
0
100
AcDbSymbolTable
 70
     1
  0
VPORT
  5
57
330
8
100
AcDbSymbolTableRecord
100
AcDbViewportTableRecord
  2
*Active
 70
     0
 10
0.0
 20
0.0
 11
1.0
 21
1.0
 12
0.0
 22
0.0
 13
0.0
 23
0.0
 14
1.0
 24
1.0
 15
0.0
 25
0.0
 16
0.0
 26
0.0
 36
1.0
 17
306.0
 27
-396.0
 37
0.0
 40
807.84
 41
0.7727272727272727
 42
50.0
 43
0.0
 44
0.0
 50
0.0
 51
0.0
 71
     0
 72
   100
 73
     1
 74
     0
 75
     1
 76
     0
 77
     0
 78
     0
281
     0
 65
     1
110
0.0
120
0.0
130
0.0
111
1.0
121
0.0
131
0.0
112
0.0
122
1.0
132
0.0
 79
     0
146
0.0
 60
     3
 61
     5
292
     1
282
     1
141
0.0
142
0.0
 63
   250
421
  3355443
  0
ENDTAB
  0
TABLE
  2
LTYPE
  5
5
330
0
100
AcDbSymbolTable
 70
     1
  0
LTYPE
  5
5B
330
5
100
AcDbSymbolTableRecord
100
AcDbLinetypeTableRecord
  2
ByBlock
 70
     0
  3

 72
    65
 73
     0
 40
0.0
  0
LTYPE
  5
5C
330
5
100
AcDbSymbolTableRecord
100
AcDbLinetypeTableRecord
  2
ByLayer
 70
     0
  3

 72
    65
 73
     0
 40
0.0
  0
LTYPE
  5
5D
330
5
100
AcDbSymbolTableRecord
100
AcDbLinetypeTableRecord
  2
Continuous
 70
     0
  3
Solid line
 72
    65
 73
     0
 40
0.0
  0
ENDTAB
  0
TABLE
  2
LAYER
  5
2
330
0
100
AcDbSymbolTable
 70
     3
  0
LAYER
  5
54
330
2
100
AcDbSymbolTableRecord
100
AcDbLayerTableRecord
  2
0
 70
     0
 62
     7
  6
Continuous
370
    -3
390
F
347
21
  0
LAYER
  5
78
330
2
100
AcDbSymbolTableRecord
100
AcDbLayerTableRecord
  2
Layer 1
 70
     1
 62
     7
  6
Continuous
370
     0
390
F
347
21
  0
LAYER
  5
AD
330
2
100
AcDbSymbolTableRecord
100
AcDbLayerTableRecord
  2
Layer 2
 70
     0
 62
     7
  6
Continuous
370
     0
390
F
347
21
  0
ENDTAB
  0
TABLE
  2
STYLE
  5
3
330
0
100
AcDbSymbolTable
 70
     2
  0
STYLE
  5
55
330
3
100
AcDbSymbolTableRecord
100
AcDbTextStyleTableRecord
  2
Standard
 70
     0
 40
0.0
 41
1.0
 50
0.0
 71
     0
 42
0.2
  3
txt
  4

  0
STYLE
  5
5A
330
3
100
AcDbSymbolTableRecord
100
AcDbTextStyleTableRecord
  2
Annotative
 70
     0
 40
0.0
 41
1.0
 50
0.0
 71
     0
 42
0.2
  3
txt
  4

1001
AcadAnnotative
1000
AnnotativeData
1002
{
1070
     1
1070
     1
1002
}
  0
ENDTAB
  0
TABLE
  2
VIEW
  5
6
330
0
100
AcDbSymbolTable
 70
     0
  0
ENDTAB
  0
TABLE
  2
UCS
  5
7
330
0
100
AcDbSymbolTable
 70
     0
  0
ENDTAB
  0
TABLE
  2
APPID
  5
9
330
0
100
AcDbSymbolTable
 70
     2
  0
APPID
  5
56
330
9
100
AcDbSymbolTableRecord
100
AcDbRegAppTableRecord
  2
ACAD
 70
     0
  0
APPID
  5
5E
330
9
100
AcDbSymbolTableRecord
100
AcDbRegAppTableRecord
  2
AcadAnnotative
 70
     0
  0
ENDTAB
  0
TABLE
  2
DIMSTYLE
  5
A
330
0
100
AcDbSymbolTable
 70
     2
100
AcDbDimStyleTable
 71
     0
  0
DIMSTYLE
105
58
330
A
100
AcDbSymbolTableRecord
100
AcDbDimStyleTableRecord
  2
Standard
 70
     0
340
55
  0
DIMSTYLE
105
59
330
A
100
AcDbSymbolTableRecord
100
AcDbDimStyleTableRecord
  2
Annotative
 70
     0
340
55
1001
AcadAnnotative
1000
AnnotativeData
1002
{
1070
     1
1070
     1
1002
}
  0
ENDTAB
  0
TABLE
  2
BLOCK_RECORD
  5
1
330
0
100
AcDbSymbolTable
 70
     7
  0
BLOCK_RECORD
  5
70
330
1
100
AcDbSymbolTableRecord
100
AcDbBlockTableRecord
  2
*Model_Space
340
73
 70
     0
280
     1
281
     0
  0
BLOCK_RECORD
  5
6C
330
1
100
AcDbSymbolTableRecord
100
AcDbBlockTableRecord
  2
*Paper_Space
340
6F
 70
     0
280
     1
281
     0
  0
BLOCK_RECORD
  5
74
330
1
100
AcDbSymbolTableRecord
100
AcDbBlockTableRecord
  2
*Paper_Space0
340
77
 70
     0
280
     1
281
     0
  0
BLOCK_RECORD
  5
79
330
1
100
AcDbSymbolTableRecord
100
AcDbBlockTableRecord
  2
Block_0
340
0
102
{BLKREFS
331
7A
102
}
 70
     0
280
     1
281
     0
  0
BLOCK_RECORD
  5
7D
330
1
100
AcDbSymbolTableRecord
100
AcDbBlockTableRecord
  2
Block_1
340
0
102
{BLKREFS
331
7E
102
}
 70
     0
280
     1
281
     0
  0
BLOCK_RECORD
  5
81
330
1
100
AcDbSymbolTableRecord
100
AcDbBlockTableRecord
  2
Block_2
340
0
102
{BLKREFS
331
82
102
}
 70
     0
280
     1
281
     0
  0
BLOCK_RECORD
  5
A7
330
1
100
AcDbSymbolTableRecord
100
AcDbBlockTableRecord
  2
Block_3
340
0
102
{BLKREFS
331
A8
102
}
 70
     0
280
     1
281
     0
  0
BLOCK_RECORD
  5
AE
330
1
100
AcDbSymbolTableRecord
100
AcDbBlockTableRecord
  2
Block_4
340
0
102
{BLKREFS
331
AF
102
}
 70
     0
280
     1
281
     0
  0
BLOCK_RECORD
  5
B8
330
1
100
AcDbSymbolTableRecord
100
AcDbBlockTableRecord
  2
Block_5
340
0
102
{BLKREFS
331
B9
102
}
 70
     0
280
     1
281
     0
  0
ENDTAB
  0
ENDSEC
  0
SECTION
  2
BLOCKS
  0
BLOCK
  5
71
330
70
100
AcDbEntity
  8
0
100
AcDbBlockBegin
  2
*Model_Space
 70
     0
 10
0.0
 20
0.0
 30
0.0
  3
*Model_Space
  1

  0
ENDBLK
  5
72
330
70
100
AcDbEntity
  8
0
100
AcDbBlockEnd
  0
BLOCK
  5
6D
330
6C
100
AcDbEntity
 67
     1
  8
0
100
AcDbBlockBegin
  2
*Paper_Space
 70
     0
 10
0.0
 20
0.0
 30
0.0
  3
*Paper_Space
  1

  0
ENDBLK
  5
6E
330
6C
100
AcDbEntity
 67
     1
  8
0
100
AcDbBlockEnd
  0
BLOCK
  5
75
330
74
100
AcDbEntity
 67
     1
  8
0
100
AcDbBlockBegin
  2
*Paper_Space0
 70
     0
 10
0.0
 20
0.0
 30
0.0
  3
*Paper_Space0
  1

  0
ENDBLK
  5
76
330
74
100
AcDbEntity
 67
     1
  8
0
100
AcDbBlockEnd
  0
BLOCK
  5
7B
330
79
100
AcDbEntity
  8
0
100
AcDbBlockBegin
  2
Block_0
 70
     0
 10
0.0
 20
0.0
 30
0.0
  3
Block_0
  1

  0
INSERT
  5
7E
330
79
100
AcDbEntity
  8
Layer 1
100
AcDbBlockReference
  2
Block_1
 10
0.0
 20
0.0
 30
0.0
  0
LINE
  5
A4
330
79
100
AcDbEntity
  8
Layer 1
 62
   250
420
  2301728
370
    35
100
AcDbLine
 10
253.8779791803345
 20
-383.9487318899492
 30
0.0
 11
257.7616385779902
 21
-383.9487318899492
 31
0.0
  0
SPLINE
  5
A5
330
79
100
AcDbEntity
  8
Layer 1
 62
   250
420
  2301728
370
    35
100
AcDbSpline
210
0.0
220
0.0
230
1.0
 70
    11
 71
     3
 72
    32
 73
    28
 74
     0
 42
0.0000000001
 43
0.0000000001
 40
0.0
 40
0.0
 40
0.0
 40
0.0
 40
1.0
 40
1.0
 40
1.0
 40
2.0
 40
2.0
 40
2.0
 40
3.0
 40
3.0
 40
3.0
 40
4.0
 40
4.0
 40
4.0
 40
5.0
 40
5.0
 40
5.0
 40
6.0
 40
6.0
 40
6.0
 40
7.0
 40
7.0
 40
7.0
 40
8.0
 40
8.0
 40
8.0
 40
9.0
 40
9.0
 40
9.0
 40
9.0
 10
257.792530644122
 20
-384.3052853467252
 30
0.0
 10
257.792530644122
 20
-384.3052853467252
 30
0.0
 10
257.792530644122
 20
-386.363019578399
 30
0.0
 10
257.792530644122
 20
-386.363019578399
 30
0.0
 10
257.792530644122
 20
-387.4525226353435
 30
0.0
 10
256.9093139088263
 20
-388.3357393706392
 30
0.0
 10
255.8198108518836
 20
-388.3357393706392
 30
0.0
 10
255.8198108518836
 20
-388.3357393706392
 30
0.0
 10
255.8198069064392
 20
-388.3357393706392
 30
0.0
 10
255.8198069064392
 20
-388.3357393706392
 30
0.0
 10
254.7303038494965
 20
-388.3357393706392
 30
0.0
 10
253.8470871142008
 20
-387.4525226353435
 30
0.0
 10
253.8470871142008
 20
-386.363019578399
 30
0.0
 10
253.8470871142008
 20
-386.363019578399
 30
0.0
 10
253.8470871142008
 20
-381.5043832209749
 30
0.0
 10
253.8470871142008
 20
-381.5043832209749
 30
0.0
 10
253.8470871142008
 20
-380.4148801640313
 30
0.0
 10
254.7303038494965
 20
-379.5316634287356
 30
0.0
 10
255.8198069064392
 20
-379.5316634287356
 30
0.0
 10
255.8198069064392
 20
-379.5316634287356
 30
0.0
 10
255.8198108518836
 20
-379.5316634287356
 30
0.0
 10
255.8198108518836
 20
-379.5316634287356
 30
0.0
 10
256.9093139088263
 20
-379.5316634287356
 30
0.0
 10
257.792530644122
 20
-380.4148801640313
 30
0.0
 10
257.792530644122
 20
-381.504383220974
 30
0.0
 10
257.792530644122
 20
-381.504383220974
 30
0.0
 10
257.792530644122
 20
-384.3052853467252
 30
0.0
 10
257.792530644122
 20
-384.3052853467252
 30
0.0
  0
LINE
  5
A6
330
79
100
AcDbEntity
  8
Layer 1
 62
   250
420
  2301728
370
    35
100
AcDbLine
 10
255.824412182501
 20
-377.8962619465483
 30
0.0
 11
255.824412182501
 21
-375.8962619465483
 31
0.0
  0
INSERT
  5
A8
330
79
100
AcDbEntity
  8
Layer 1
100
AcDbBlockReference
  2
Block_3
 10
0.0
 20
0.0
 30
0.0
  0
ENDBLK
  5
7C
330
79
100
AcDbEntity
  8
0
100
AcDbBlockEnd
  0
BLOCK
  5
7F
330
7D
100
AcDbEntity
  8
0
100
AcDbBlockBegin
  2
Block_1
 70
     0
 10
0.0
 20
0.0
 30
0.0
  3
Block_1
  1

  0
INSERT
  5
82
330
7D
100
AcDbEntity
  8
Layer 1
100
AcDbBlockReference
  2
Block_2
 10
0.0
 20
0.0
 30
0.0
  0
ENDBLK
  5
80
330
7D
100
AcDbEntity
  8
0
100
AcDbBlockEnd
  0
BLOCK
  5
83
330
81
100
AcDbEntity
  8
0
100
AcDbBlockBegin
  2
Block_2
 70
     0
 10
0.0
 20
0.0
 30
0.0
  3
Block_2
  1

  0
SPLINE
  5
85
330
81
100
AcDbEntity
  8
Layer 1
100
AcDbSpline
210
0.0
220
0.0
230
1.0
 70
     9
 71
     3
 72
    35
 73
    31
 74
     0
 42
0.0000000001
 43
0.0000000001
 40
0.0
 40
0.0
 40
0.0
 40
0.0
 40
1.0
 40
1.0
 40
1.0
 40
2.0
 40
2.0
 40
2.0
 40
3.0
 40
3.0
 40
3.0
 40
4.0
 40
4.0
 40
4.0
 40
5.0
 40
5.0
 40
5.0
 40
6.0
 40
6.0
 40
6.0
 40
7.0
 40
7.0
 40
7.0
 40
8.0
 40
8.0
 40
8.0
 40
9.0
 40
9.0
 40
9.0
 40
10.0
 40
10.0
 40
10.0
 40
10.0
 10
266.234375
 20
-388.5537109375
 30
0.0
 10
266.05810546875
 20
-388.5537109375
 30
0.0
 10
265.91015625
 20
-388.49365234375
 30
0.0
 10
265.7900390625
 20
-388.37353515625
 30
0.0
 10
265.669921875
 20
-388.25390625
 30
0.0
 10
265.6103515625
 20
-388.10595703125
 30
0.0
 10
265.6103515625
 20
-387.9296875
 30
0.0
 10
265.6103515625
 20
-387.9296875
 30
0.0
 10
265.6103515625
 20
-379.8056640625
 30
0.0
 10
265.6103515625
 20
-379.8056640625
 30
0.0
 10
265.6103515625
 20
-379.62158203125
 30
0.0
 10
265.669921875
 20
-379.4716796875
 30
0.0
 10
265.7900390625
 20
-379.35546875
 30
0.0
 10
265.91015625
 20
-379.23974609375
 30
0.0
 10
266.05810546875
 20
-379.181640625
 30
0.0
 10
266.234375
 20
-379.181640625
 30
0.0
 10
266.41796875
 20
-379.181640625
 30
0.0
 10
266.56787109375
 20
-379.23974609375
 30
0.0
 10
266.68408203125
 20
-379.35546875
 30
0.0
 10
266.7998046875
 20
-379.4716796875
 30
0.0
 10
266.8583984375
 20
-379.62158203125
 30
0.0
 10
266.8583984375
 20
-379.8056640625
 30
0.0
 10
266.8583984375
 20
-379.8056640625
 30
0.0
 10
266.8583984375
 20
-387.9296875
 30
0.0
 10
266.8583984375
 20
-387.9296875
 30
0.0
 10
266.8583984375
 20
-388.10595703125
 30
0.0
 10
266.7998046875
 20
-388.25390625
 30
0.0
 10
266.68408203125
 20
-388.37353515625
 30
0.0
 10
266.56787109375
 20
-388.49365234375
 30
0.0
 10
266.41796875
 20
-388.5537109375
 30
0.0
 10
266.234375
 20
-388.5537109375
 30
0.0
  0
HATCH
  5
86
330
81
100
AcDbEntity
  8
Layer 1
 62
   250
420
  2301728
440
 33554687
100
AcDbHatch
 10
0.0
 20
0.0
 30
0.0
210
0.0
220
0.0
230
1.0
  2
SOLID
 70
     1
 71
     1
 91
        1
 92
        1
 93
        1
 72
     4
 94
        3
 73
     0
 74
     0
 95
       35
 96
       31
 40
0.0
 40
0.0
 40
0.0
 40
0.0
 40
1.0
 40
1.0
 40
1.0
 40
2.0
 40
2.0
 40
2.0
 40
3.0
 40
3.0
 40
3.0
 40
4.0
 40
4.0
 40
4.0
 40
5.0
 40
5.0
 40
5.0
 40
6.0
 40
6.0
 40
6.0
 40
7.0
 40
7.0
 40
7.0
 40
8.0
 40
8.0
 40
8.0
 40
9.0
 40
9.0
 40
9.0
 40
10.0
 40
10.0
 40
10.0
 40
10.0
 10
266.234375
 20
-388.5537109375
 10
266.05810546875
 20
-388.5537109375
 10
265.91015625
 20
-388.49365234375
 10
265.7900390625
 20
-388.37353515625
 10
265.669921875
 20
-388.25390625
 10
265.6103515625
 20
-388.10595703125
 10
265.6103515625
 20
-387.9296875
 10
265.6103515625
 20
-387.9296875
 10
265.6103515625
 20
-379.8056640625
 10
265.6103515625
 20
-379.8056640625
 10
265.6103515625
 20
-379.62158203125
 10
265.669921875
 20
-379.4716796875
 10
265.7900390625
 20
-379.35546875
 10
265.91015625
 20
-379.23974609375
 10
266.05810546875
 20
-379.181640625
 10
266.234375
 20
-379.181640625
 10
266.41796875
 20
-379.181640625
 10
266.56787109375
 20
-379.23974609375
 10
266.68408203125
 20
-379.35546875
 10
266.7998046875
 20
-379.4716796875
 10
266.8583984375
 20
-379.62158203125
 10
266.8583984375
 20
-379.8056640625
 10
266.8583984375
 20
-379.8056640625
 10
266.8583984375
 20
-387.9296875
 10
266.8583984375
 20
-387.9296875
 10
266.8583984375
 20
-388.10595703125
 10
266.7998046875
 20
-388.25390625
 10
266.68408203125
 20
-388.37353515625
 10
266.56787109375
 20
-388.49365234375
 10
266.41796875
 20
-388.5537109375
 10
266.234375
 20
-388.5537109375
 97
        0
 97
        1
330
85
 75
     2
 76
     1
 98
        1
 10
0.0
 20
0.0
450
        0
451
        0
460
0.0
461
0.0
452
        0
462
0.0
453
        0
470

  0
SPLINE
  5
87
330
81
100
AcDbEntity
  8
Layer 1
100
AcDbSpline
210
0.0
220
0.0
230
1.0
 70
     9
 71
     3
 72
    68
 73
    64
 74
     0
 42
0.0000000001
 43
0.0000000001
 40
0.0
 40
0.0
 40
0.0
 40
0.0
 40
1.0
 40
1.0
 40
1.0
 40
2.0
 40
2.0
 40
2.0
 40
3.0
 40
3.0
 40
3.0
 40
4.0
 40
4.0
 40
4.0
 40
5.0
 40
5.0
 40
5.0
 40
6.0
 40
6.0
 40
6.0
 40
7.0
 40
7.0
 40
7.0
 40
8.0
 40
8.0
 40
8.0
 40
9.0
 40
9.0
 40
9.0
 40
10.0
 40
10.0
 40
10.0
 40
11.0
 40
11.0
 40
11.0
 40
12.0
 40
12.0
 40
12.0
 40
13.0
 40
13.0
 40
13.0
 40
14.0
 40
14.0
 40
14.0
 40
15.0
 40
15.0
 40
15.0
 40
16.0
 40
16.0
 40
16.0
 40
17.0
 40
17.0
 40
17.0
 40
18.0
 40
18.0
 40
18.0
 40
19.0
 40
19.0
 40
19.0
 40
20.0
 40
20.0
 40
20.0
 40
21.0
 40
21.0
 40
21.0
 40
21.0
 10
269.8701171875
 20
-388.5537109375
 30
0.0
 10
269.69384765625
 20
-388.5537109375
 30
0.0
 10
269.5478515625
 20
-388.49365234375
 30
0.0
 10
269.43212890625
 20
-388.37353515625
 30
0.0
 10
269.31591796875
 20
-388.25390625
 30
0.0
 10
269.25830078125
 20
-388.10595703125
 30
0.0
 10
269.25830078125
 20
-387.9296875
 30
0.0
 10
269.25830078125
 20
-387.9296875
 30
0.0
 10
269.25830078125
 20
-379.8056640625
 30
0.0
 10
269.25830078125
 20
-379.8056640625
 30
0.0
 10
269.25830078125
 20
-379.62158203125
 30
0.0
 10
269.31591796875
 20
-379.4716796875
 30
0.0
 10
269.43212890625
 20
-379.35546875
 30
0.0
 10
269.5478515625
 20
-379.23974609375
 30
0.0
 10
269.69384765625
 20
-379.181640625
 30
0.0
 10
269.8701171875
 20
-379.181640625
 30
0.0
 10
270.06201171875
 20
-379.181640625
 30
0.0
 10
270.22216796875
 20
-379.2578125
 30
0.0
 10
270.35009765625
 20
-379.40966796875
 30
0.0
 10
270.35009765625
 20
-379.40966796875
 30
0.0
 10
275.58203125
 20
-386.36962890625
 30
0.0
 10
275.58203125
 20
-386.36962890625
 30
0.0
 10
275.58203125
 20
-386.36962890625
 30
0.0
 10
275.58203125
 20
-379.8056640625
 30
0.0
 10
275.58203125
 20
-379.8056640625
 30
0.0
 10
275.58203125
 20
-379.62158203125
 30
0.0
 10
275.64208984375
 20
-379.4716796875
 30
0.0
 10
275.76220703125
 20
-379.35546875
 30
0.0
 10
275.88232421875
 20
-379.23974609375
 30
0.0
 10
276.0302734375
 20
-379.181640625
 30
0.0
 10
276.2060546875
 20
-379.181640625
 30
0.0
 10
276.39013671875
 20
-379.181640625
 30
0.0
 10
276.5380859375
 20
-379.23974609375
 30
0.0
 10
276.64990234375
 20
-379.35546875
 30
0.0
 10
276.76220703125
 20
-379.4716796875
 30
0.0
 10
276.81787109375
 20
-379.62158203125
 30
0.0
 10
276.81787109375
 20
-379.8056640625
 30
0.0
 10
276.81787109375
 20
-379.8056640625
 30
0.0
 10
276.81787109375
 20
-387.9296875
 30
0.0
 10
276.81787109375
 20
-387.9296875
 30
0.0
 10
276.81787109375
 20
-388.10595703125
 30
0.0
 10
276.76220703125
 20
-388.25390625
 30
0.0
 10
276.64990234375
 20
-388.37353515625
 30
0.0
 10
276.5380859375
 20
-388.49365234375
 30
0.0
 10
276.39013671875
 20
-388.5537109375
 30
0.0
 10
276.2060546875
 20
-388.5537109375
 30
0.0
 10
276.1259765625
 20
-388.5537109375
 30
0.0
 10
276.0400390625
 20
-388.53564453125
 30
0.0
 10
275.9482421875
 20
-388.49951171875
 30
0.0
 10
275.85595703125
 20
-388.4638671875
 30
0.0
 10
275.78173828125
 20
-388.40966796875
 30
0.0
 10
275.72607421875
 20
-388.337890625
 30
0.0
 10
275.72607421875
 20
-388.337890625
 30
0.0
 10
270.494140625
 20
-381.3779296875
 30
0.0
 10
270.494140625
 20
-381.3779296875
 30
0.0
 10
270.494140625
 20
-381.3779296875
 30
0.0
 10
270.494140625
 20
-387.9296875
 30
0.0
 10
270.494140625
 20
-387.9296875
 30
0.0
 10
270.494140625
 20
-388.10595703125
 30
0.0
 10
270.43603515625
 20
-388.25390625
 30
0.0
 10
270.3203125
 20
-388.37353515625
 30
0.0
 10
270.2041015625
 20
-388.49365234375
 30
0.0
 10
270.05419921875
 20
-388.5537109375
 30
0.0
 10
269.8701171875
 20
-388.5537109375
 30
0.0
  0
HATCH
  5
88
330
81
100
AcDbEntity
  8
Layer 1
 62
   250
420
  2301728
440
 33554687
100
AcDbHatch
 10
0.0
 20
0.0
 30
0.0
210
0.0
220
0.0
230
1.0
  2
SOLID
 70
     1
 71
     1
 91
        1
 92
        1
 93
        1
 72
     4
 94
        3
 73
     0
 74
     0
 95
       68
 96
       64
 40
0.0
 40
0.0
 40
0.0
 40
0.0
 40
1.0
 40
1.0
 40
1.0
 40
2.0
 40
2.0
 40
2.0
 40
3.0
 40
3.0
 40
3.0
 40
4.0
 40
4.0
 40
4.0
 40
5.0
 40
5.0
 40
5.0
 40
6.0
 40
6.0
 40
6.0
 40
7.0
 40
7.0
 40
7.0
 40
8.0
 40
8.0
 40
8.0
 40
9.0
 40
9.0
 40
9.0
 40
10.0
 40
10.0
 40
10.0
 40
11.0
 40
11.0
 40
11.0
 40
12.0
 40
12.0
 40
12.0
 40
13.0
 40
13.0
 40
13.0
 40
14.0
 40
14.0
 40
14.0
 40
15.0
 40
15.0
 40
15.0
 40
16.0
 40
16.0
 40
16.0
 40
17.0
 40
17.0
 40
17.0
 40
18.0
 40
18.0
 40
18.0
 40
19.0
 40
19.0
 40
19.0
 40
20.0
 40
20.0
 40
20.0
 40
21.0
 40
21.0
 40
21.0
 40
21.0
 10
269.8701171875
 20
-388.5537109375
 10
269.69384765625
 20
-388.5537109375
 10
269.5478515625
 20
-388.49365234375
 10
269.43212890625
 20
-388.37353515625
 10
269.31591796875
 20
-388.25390625
 10
269.25830078125
 20
-388.10595703125
 10
269.25830078125
 20
-387.9296875
 10
269.25830078125
 20
-387.9296875
 10
269.25830078125
 20
-379.8056640625
 10
269.25830078125
 20
-379.8056640625
 10
269.25830078125
 20
-379.62158203125
 10
269.31591796875
 20
-379.4716796875
 10
269.43212890625
 20
-379.35546875
 10
269.5478515625
 20
-379.23974609375
 10
269.69384765625
 20
-379.181640625
 10
269.8701171875
 20
-379.181640625
 10
270.06201171875
 20
-379.181640625
 10
270.22216796875
 20
-379.2578125
 10
270.35009765625
 20
-379.40966796875
 10
270.35009765625
 20
-379.40966796875
 10
275.58203125
 20
-386.36962890625
 10
275.58203125
 20
-386.36962890625
 10
275.58203125
 20
-386.36962890625
 10
275.58203125
 20
-379.8056640625
 10
275.58203125
 20
-379.8056640625
 10
275.58203125
 20
-379.62158203125
 10
275.64208984375
 20
-379.4716796875
 10
275.76220703125
 20
-379.35546875
 10
275.88232421875
 20
-379.23974609375
 10
276.0302734375
 20
-379.181640625
 10
276.2060546875
 20
-379.181640625
 10
276.39013671875
 20
-379.181640625
 10
276.5380859375
 20
-379.23974609375
 10
276.64990234375
 20
-379.35546875
 10
276.76220703125
 20
-379.4716796875
 10
276.81787109375
 20
-379.62158203125
 10
276.81787109375
 20
-379.8056640625
 10
276.81787109375
 20
-379.8056640625
 10
276.81787109375
 20
-387.9296875
 10
276.81787109375
 20
-387.9296875
 10
276.81787109375
 20
-388.10595703125
 10
276.76220703125
 20
-388.25390625
 10
276.64990234375
 20
-388.37353515625
 10
276.5380859375
 20
-388.49365234375
 10
276.39013671875
 20
-388.5537109375
 10
276.2060546875
 20
-388.5537109375
 10
276.1259765625
 20
-388.5537109375
 10
276.0400390625
 20
-388.53564453125
 10
275.9482421875
 20
-388.49951171875
 10
275.85595703125
 20
-388.4638671875
 10
275.78173828125
 20
-388.40966796875
 10
275.72607421875
 20
-388.337890625
 10
275.72607421875
 20
-388.337890625
 10
270.494140625
 20
-381.3779296875
 10
270.494140625
 20
-381.3779296875
 10
270.494140625
 20
-381.3779296875
 10
270.494140625
 20
-387.9296875
 10
270.494140625
 20
-387.9296875
 10
270.494140625
 20
-388.10595703125
 10
270.43603515625
 20
-388.25390625
 10
270.3203125
 20
-388.37353515625
 10
270.2041015625
 20
-388.49365234375
 10
270.05419921875
 20
-388.5537109375
 10
269.8701171875
 20
-388.5537109375
 97
        0
 97
        1
330
87
 75
     2
 76
     1
 98
        1
 10
0.0
 20
0.0
450
        0
451
        0
460
0.0
461
0.0
452
        0
462
0.0
453
        0
470

  0
SPLINE
  5
89
330
81
100
AcDbEntity
  8
Layer 1
100
AcDbSpline
210
0.0
220
0.0
230
1.0
 70
    11
 71
     3
 72
    32
 73
    28
 74
     0
 42
0.0000000001
 43
0.0000000001
 40
0.0
 40
0.0
 40
0.0
 40
0.0
 40
1.0
 40
1.0
 40
1.0
 40
2.0
 40
2.0
 40
2.0
 40
3.0
 40
3.0
 40
3.0
 40
4.0
 40
4.0
 40
4.0
 40
5.0
 40
5.0
 40
5.0
 40
6.0
 40
6.0
 40
6.0
 40
7.0
 40
7.0
 40
7.0
 40
8.0
 40
8.0
 40
8.0
 40
9.0
 40
9.0
 40
9.0
 40
9.0
 10
280.46630859375
 20
-387.44970703125
 30
0.0
 10
280.46630859375
 20
-387.44970703125
 30
0.0
 10
282.01416015625
 20
-387.44970703125
 30
0.0
 10
282.01416015625
 20
-387.44970703125
 30
0.0
 10
282.68603515625
 20
-387.44970703125
 30
0.0
 10
283.2802734375
 20
-387.2958984375
 30
0.0
 10
283.7958984375
 20
-386.98779296875
 30
0.0
 10
284.31201171875
 20
-386.6796875
 30
0.0
 10
284.7177734375
 20
-386.255859375
 30
0.0
 10
285.01416015625
 20
-385.7158203125
 30
0.0
 10
285.31005859375
 20
-385.17578125
 30
0.0
 10
285.4580078125
 20
-384.5576171875
 30
0.0
 10
285.4580078125
 20
-383.86181640625
 30
0.0
 10
285.4580078125
 20
-383.15771484375
 30
0.0
 10
285.31005859375
 20
-382.53759765625
 30
0.0
 10
285.01416015625
 20
-382.001953125
 30
0.0
 10
284.7177734375
 20
-381.4658203125
 30
0.0
 10
284.31201171875
 20
-381.0458984375
 30
0.0
 10
283.7958984375
 20
-380.74169921875
 30
0.0
 10
283.2802734375
 20
-380.43798828125
 30
0.0
 10
282.68603515625
 20
-380.28564453125
 30
0.0
 10
282.01416015625
 20
-380.28564453125
 30
0.0
 10
282.01416015625
 20
-380.28564453125
 30
0.0
 10
280.46630859375
 20
-380.28564453125
 30
0.0
 10
280.46630859375
 20
-380.28564453125
 30
0.0
 10
280.46630859375
 20
-380.28564453125
 30
0.0
 10
280.46630859375
 20
-387.44970703125
 30
0.0
 10
280.46630859375
 20
-387.44970703125
 30
0.0
  0
SPLINE
  5
8A
330
81
100
AcDbEntity
  8
Layer 1
100
AcDbSpline
210
0.0
220
0.0
230
1.0
 70
     9
 71
     3
 72
    50
 73
    46
 74
     0
 42
0.0000000001
 43
0.0000000001
 40
0.0
 40
0.0
 40
0.0
 40
0.0
 40
1.0
 40
1.0
 40
1.0
 40
2.0
 40
2.0
 40
2.0
 40
3.0
 40
3.0
 40
3.0
 40
4.0
 40
4.0
 40
4.0
 40
5.0
 40
5.0
 40
5.0
 40
6.0
 40
6.0
 40
6.0
 40
7.0
 40
7.0
 40
7.0
 40
8.0
 40
8.0
 40
8.0
 40
9.0
 40
9.0
 40
9.0
 40
10.0
 40
10.0
 40
10.0
 40
11.0
 40
11.0
 40
11.0
 40
12.0
 40
12.0
 40
12.0
 40
13.0
 40
13.0
 40
13.0
 40
14.0
 40
14.0
 40
14.0
 40
15.0
 40
15.0
 40
15.0
 40
15.0
 10
279.84228515625
 20
-388.5537109375
 30
0.0
 10
279.666015625
 20
-388.5537109375
 30
0.0
 10
279.51806640625
 20
-388.49365234375
 30
0.0
 10
279.39794921875
 20
-388.37353515625
 30
0.0
 10
279.27783203125
 20
-388.25390625
 30
0.0
 10
279.21826171875
 20
-388.10595703125
 30
0.0
 10
279.21826171875
 20
-387.9296875
 30
0.0
 10
279.21826171875
 20
-387.9296875
 30
0.0
 10
279.21826171875
 20
-379.8056640625
 30
0.0
 10
279.21826171875
 20
-379.8056640625
 30
0.0
 10
279.21826171875
 20
-379.62158203125
 30
0.0
 10
279.27783203125
 20
-379.4716796875
 30
0.0
 10
279.39794921875
 20
-379.35546875
 30
0.0
 10
279.51806640625
 20
-379.23974609375
 30
0.0
 10
279.666015625
 20
-379.181640625
 30
0.0
 10
279.84228515625
 20
-379.181640625
 30
0.0
 10
279.84228515625
 20
-379.181640625
 30
0.0
 10
282.01416015625
 20
-379.181640625
 30
0.0
 10
282.01416015625
 20
-379.181640625
 30
0.0
 10
282.7021484375
 20
-379.181640625
 30
0.0
 10
283.328125
 20
-379.2958984375
 30
0.0
 10
283.89208984375
 20
-379.52392578125
 30
0.0
 10
284.4560546875
 20
-379.751953125
 30
0.0
 10
284.94580078125
 20
-380.07568359375
 30
0.0
 10
285.3623046875
 20
-380.49560546875
 30
0.0
 10
285.77783203125
 20
-380.91552734375
 30
0.0
 10
286.09814453125
 20
-381.40966796875
 30
0.0
 10
286.322265625
 20
-381.9775390625
 30
0.0
 10
286.5458984375
 20
-382.5458984375
 30
0.0
 10
286.658203125
 20
-383.173828125
 30
0.0
 10
286.658203125
 20
-383.86181640625
 30
0.0
 10
286.658203125
 20
-384.5498046875
 30
0.0
 10
286.5458984375
 20
-385.1796875
 30
0.0
 10
286.322265625
 20
-385.751953125
 30
0.0
 10
286.09814453125
 20
-386.32373046875
 30
0.0
 10
285.77783203125
 20
-386.81982421875
 30
0.0
 10
285.3623046875
 20
-387.23974609375
 30
0.0
 10
284.94580078125
 20
-387.65966796875
 30
0.0
 10
284.4560546875
 20
-387.98388671875
 30
0.0
 10
283.89208984375
 20
-388.2119140625
 30
0.0
 10
283.328125
 20
-388.43994140625
 30
0.0
 10
282.7021484375
 20
-388.5537109375
 30
0.0
 10
282.01416015625
 20
-388.5537109375
 30
0.0
 10
282.01416015625
 20
-388.5537109375
 30
0.0
 10
279.84228515625
 20
-388.5537109375
 30
0.0
 10
279.84228515625
 20
-388.5537109375
 30
0.0
  0
HATCH
  5
8B
330
81
100
AcDbEntity
  8
Layer 1
 62
   250
420
  2301728
440
 33554687
100
AcDbHatch
 10
0.0
 20
0.0
 30
0.0
210
0.0
220
0.0
230
1.0
  2
SOLID
 70
     1
 71
     1
 91
        2
 92
        1
 93
        1
 72
     4
 94
        3
 73
     0
 74
     0
 95
       32
 96
       28
 40
0.0
 40
0.0
 40
0.0
 40
0.0
 40
1.0
 40
1.0
 40
1.0
 40
2.0
 40
2.0
 40
2.0
 40
3.0
 40
3.0
 40
3.0
 40
4.0
 40
4.0
 40
4.0
 40
5.0
 40
5.0
 40
5.0
 40
6.0
 40
6.0
 40
6.0
 40
7.0
 40
7.0
 40
7.0
 40
8.0
 40
8.0
 40
8.0
 40
9.0
 40
9.0
 40
9.0
 40
9.0
 10
280.46630859375
 20
-387.44970703125
 10
280.46630859375
 20
-387.44970703125
 10
282.01416015625
 20
-387.44970703125
 10
282.01416015625
 20
-387.44970703125
 10
282.68603515625
 20
-387.44970703125
 10
283.2802734375
 20
-387.2958984375
 10
283.7958984375
 20
-386.98779296875
 10
284.31201171875
 20
-386.6796875
 10
284.7177734375
 20
-386.255859375
 10
285.01416015625
 20
-385.7158203125
 10
285.31005859375
 20
-385.17578125
 10
285.4580078125
 20
-384.5576171875
 10
285.4580078125
 20
-383.86181640625
 10
285.4580078125
 20
-383.15771484375
 10
285.31005859375
 20
-382.53759765625
 10
285.01416015625
 20
-382.001953125
 10
284.7177734375
 20
-381.4658203125
 10
284.31201171875
 20
-381.0458984375
 10
283.7958984375
 20
-380.74169921875
 10
283.2802734375
 20
-380.43798828125
 10
282.68603515625
 20
-380.28564453125
 10
282.01416015625
 20
-380.28564453125
 10
282.01416015625
 20
-380.28564453125
 10
280.46630859375
 20
-380.28564453125
 10
280.46630859375
 20
-380.28564453125
 10
280.46630859375
 20
-380.28564453125
 10
280.46630859375
 20
-387.44970703125
 10
280.46630859375
 20
-387.44970703125
 97
        0
 97
        1
330
89
 92
        1
 93
        1
 72
     4
 94
        3
 73
     0
 74
     0
 95
       50
 96
       46
 40
0.0
 40
0.0
 40
0.0
 40
0.0
 40
1.0
 40
1.0
 40
1.0
 40
2.0
 40
2.0
 40
2.0
 40
3.0
 40
3.0
 40
3.0
 40
4.0
 40
4.0
 40
4.0
 40
5.0
 40
5.0
 40
5.0
 40
6.0
 40
6.0
 40
6.0
 40
7.0
 40
7.0
 40
7.0
 40
8.0
 40
8.0
 40
8.0
 40
9.0
 40
9.0
 40
9.0
 40
10.0
 40
10.0
 40
10.0
 40
11.0
 40
11.0
 40
11.0
 40
12.0
 40
12.0
 40
12.0
 40
13.0
 40
13.0
 40
13.0
 40
14.0
 40
14.0
 40
14.0
 40
15.0
 40
15.0
 40
15.0
 40
15.0
 10
279.84228515625
 20
-388.5537109375
 10
279.666015625
 20
-388.5537109375
 10
279.51806640625
 20
-388.49365234375
 10
279.39794921875
 20
-388.37353515625
 10
279.27783203125
 20
-388.25390625
 10
279.21826171875
 20
-388.10595703125
 10
279.21826171875
 20
-387.9296875
 10
279.21826171875
 20
-387.9296875
 10
279.21826171875
 20
-379.8056640625
 10
279.21826171875
 20
-379.8056640625
 10
279.21826171875
 20
-379.62158203125
 10
279.27783203125
 20
-379.4716796875
 10
279.39794921875
 20
-379.35546875
 10
279.51806640625
 20
-379.23974609375
 10
279.666015625
 20
-379.181640625
 10
279.84228515625
 20
-379.181640625
 10
279.84228515625
 20
-379.181640625
 10
282.01416015625
 20
-379.181640625
 10
282.01416015625
 20
-379.181640625
 10
282.7021484375
 20
-379.181640625
 10
283.328125
 20
-379.2958984375
 10
283.89208984375
 20
-379.52392578125
 10
284.4560546875
 20
-379.751953125
 10
284.94580078125
 20
-380.07568359375
 10
285.3623046875
 20
-380.49560546875
 10
285.77783203125
 20
-380.91552734375
 10
286.09814453125
 20
-381.40966796875
 10
286.322265625
 20
-381.9775390625
 10
286.5458984375
 20
-382.5458984375
 10
286.658203125
 20
-383.173828125
 10
286.658203125
 20
-383.86181640625
 10
286.658203125
 20
-384.5498046875
 10
286.5458984375
 20
-385.1796875
 10
286.322265625
 20
-385.751953125
 10
286.09814453125
 20
-386.32373046875
 10
285.77783203125
 20
-386.81982421875
 10
285.3623046875
 20
-387.23974609375
 10
284.94580078125
 20
-387.65966796875
 10
284.4560546875
 20
-387.98388671875
 10
283.89208984375
 20
-388.2119140625
 10
283.328125
 20
-388.43994140625
 10
282.7021484375
 20
-388.5537109375
 10
282.01416015625
 20
-388.5537109375
 10
282.01416015625
 20
-388.5537109375
 10
279.84228515625
 20
-388.5537109375
 10
279.84228515625
 20
-388.5537109375
 97
        0
 97
        1
330
8A
 75
     2
 76
     1
 98
        1
 10
0.0
 20
0.0
450
        0
451
        0
460
0.0
461
0.0
452
        0
462
0.0
453
        0
470

  0
SPLINE
  5
8C
330
81
100
AcDbEntity
  8
Layer 1
100
AcDbSpline
210
0.0
220
0.0
230
1.0
 70
     9
 71
     3
 72
    35
 73
    31
 74
     0
 42
0.0000000001
 43
0.0000000001
 40
0.0
 40
0.0
 40
0.0
 40
0.0
 40
1.0
 40
1.0
 40
1.0
 40
2.0
 40
2.0
 40
2.0
 40
3.0
 40
3.0
 40
3.0
 40
4.0
 40
4.0
 40
4.0
 40
5.0
 40
5.0
 40
5.0
 40
6.0
 40
6.0
 40
6.0
 40
7.0
 40
7.0
 40
7.0
 40
8.0
 40
8.0
 40
8.0
 40
9.0
 40
9.0
 40
9.0
 40
10.0
 40
10.0
 40
10.0
 40
10.0
 10
289.23828125
 20
-388.5537109375
 30
0.0
 10
289.06201171875
 20
-388.5537109375
 30
0.0
 10
288.9140625
 20
-388.49365234375
 30
0.0
 10
288.7939453125
 20
-388.37353515625
 30
0.0
 10
288.673828125
 20
-388.25390625
 30
0.0
 10
288.6142578125
 20
-388.10595703125
 30
0.0
 10
288.6142578125
 20
-387.9296875
 30
0.0
 10
288.6142578125
 20
-387.9296875
 30
0.0
 10
288.6142578125
 20
-379.8056640625
 30
0.0
 10
288.6142578125
 20
-379.8056640625
 30
0.0
 10
288.6142578125
 20
-379.62158203125
 30
0.0
 10
288.673828125
 20
-379.4716796875
 30
0.0
 10
288.7939453125
 20
-379.35546875
 30
0.0
 10
288.9140625
 20
-379.23974609375
 30
0.0
 10
289.06201171875
 20
-379.181640625
 30
0.0
 10
289.23828125
 20
-379.181640625
 30
0.0
 10
289.421875
 20
-379.181640625
 30
0.0
 10
289.57177734375
 20
-379.23974609375
 30
0.0
 10
289.68798828125
 20
-379.35546875
 30
0.0
 10
289.8037109375
 20
-379.4716796875
 30
0.0
 10
289.8623046875
 20
-379.62158203125
 30
0.0
 10
289.8623046875
 20
-379.8056640625
 30
0.0
 10
289.8623046875
 20
-379.8056640625
 30
0.0
 10
289.8623046875
 20
-387.9296875
 30
0.0
 10
289.8623046875
 20
-387.9296875
 30
0.0
 10
289.8623046875
 20
-388.10595703125
 30
0.0
 10
289.8037109375
 20
-388.25390625
 30
0.0
 10
289.68798828125
 20
-388.37353515625
 30
0.0
 10
289.57177734375
 20
-388.49365234375
 30
0.0
 10
289.421875
 20
-388.5537109375
 30
0.0
 10
289.23828125
 20
-388.5537109375
 30
0.0
  0
HATCH
  5
8D
330
81
100
AcDbEntity
  8
Layer 1
 62
   250
420
  2301728
440
 33554687
100
AcDbHatch
 10
0.0
 20
0.0
 30
0.0
210
0.0
220
0.0
230
1.0
  2
SOLID
 70
     1
 71
     1
 91
        1
 92
        1
 93
        1
 72
     4
 94
        3
 73
     0
 74
     0
 95
       35
 96
       31
 40
0.0
 40
0.0
 40
0.0
 40
0.0
 40
1.0
 40
1.0
 40
1.0
 40
2.0
 40
2.0
 40
2.0
 40
3.0
 40
3.0
 40
3.0
 40
4.0
 40
4.0
 40
4.0
 40
5.0
 40
5.0
 40
5.0
 40
6.0
 40
6.0
 40
6.0
 40
7.0
 40
7.0
 40
7.0
 40
8.0
 40
8.0
 40
8.0
 40
9.0
 40
9.0
 40
9.0
 40
10.0
 40
10.0
 40
10.0
 40
10.0
 10
289.23828125
 20
-388.5537109375
 10
289.06201171875
 20
-388.5537109375
 10
288.9140625
 20
-388.49365234375
 10
288.7939453125
 20
-388.37353515625
 10
288.673828125
 20
-388.25390625
 10
288.6142578125
 20
-388.10595703125
 10
288.6142578125
 20
-387.9296875
 10
288.6142578125
 20
-387.9296875
 10
288.6142578125
 20
-379.8056640625
 10
288.6142578125
 20
-379.8056640625
 10
288.6142578125
 20
-379.62158203125
 10
288.673828125
 20
-379.4716796875
 10
288.7939453125
 20
-379.35546875
 10
288.9140625
 20
-379.23974609375
 10
289.06201171875
 20
-379.181640625
 10
289.23828125
 20
-379.181640625
 10
289.421875
 20
-379.181640625
 10
289.57177734375
 20
-379.23974609375
 10
289.68798828125
 20
-379.35546875
 10
289.8037109375
 20
-379.4716796875
 10
289.8623046875
 20
-379.62158203125
 10
289.8623046875
 20
-379.8056640625
 10
289.8623046875
 20
-379.8056640625
 10
289.8623046875
 20
-387.9296875
 10
289.8623046875
 20
-387.9296875
 10
289.8623046875
 20
-388.10595703125
 10
289.8037109375
 20
-388.25390625
 10
289.68798828125
 20
-388.37353515625
 10
289.57177734375
 20
-388.49365234375
 10
289.421875
 20
-388.5537109375
 10
289.23828125
 20
-388.5537109375
 97
        0
 97
        1
330
8C
 75
     2
 76
     1
 98
        1
 10
0.0
 20
0.0
450
        0
451
        0
460
0.0
461
0.0
452
        0
462
0.0
453
        0
470

  0
SPLINE
  5
8E
330
81
100
AcDbEntity
  8
Layer 1
100
AcDbSpline
210
0.0
220
0.0
230
1.0
 70
     9
 71
     3
 72
   128
 73
   124
 74
     0
 42
0.0000000001
 43
0.0000000001
 40
0.0
 40
0.0
 40
0.0
 40
0.0
 40
1.0
 40
1.0
 40
1.0
 40
2.0
 40
2.0
 40
2.0
 40
3.0
 40
3.0
 40
3.0
 40
4.0
 40
4.0
 40
4.0
 40
5.0
 40
5.0
 40
5.0
 40
6.0
 40
6.0
 40
6.0
 40
7.0
 40
7.0
 40
7.0
 40
8.0
 40
8.0
 40
8.0
 40
9.0
 40
9.0
 40
9.0
 40
10.0
 40
10.0
 40
10.0
 40
11.0
 40
11.0
 40
11.0
 40
12.0
 40
12.0
 40
12.0
 40
13.0
 40
13.0
 40
13.0
 40
14.0
 40
14.0
 40
14.0
 40
15.0
 40
15.0
 40
15.0
 40
16.0
 40
16.0
 40
16.0
 40
17.0
 40
17.0
 40
17.0
 40
18.0
 40
18.0
 40
18.0
 40
19.0
 40
19.0
 40
19.0
 40
20.0
 40
20.0
 40
20.0
 40
21.0
 40
21.0
 40
21.0
 40
22.0
 40
22.0
 40
22.0
 40
23.0
 40
23.0
 40
23.0
 40
24.0
 40
24.0
 40
24.0
 40
25.0
 40
25.0
 40
25.0
 40
26.0
 40
26.0
 40
26.0
 40
27.0
 40
27.0
 40
27.0
 40
28.0
 40
28.0
 40
28.0
 40
29.0
 40
29.0
 40
29.0
 40
30.0
 40
30.0
 40
30.0
 40
31.0
 40
31.0
 40
31.0
 40
32.0
 40
32.0
 40
32.0
 40
33.0
 40
33.0
 40
33.0
 40
34.0
 40
34.0
 40
34.0
 40
35.0
 40
35.0
 40
35.0
 40
36.0
 40
36.0
 40
36.0
 40
37.0
 40
37.0
 40
37.0
 40
38.0
 40
38.0
 40
38.0
 40
39.0
 40
39.0
 40
39.0
 40
40.0
 40
40.0
 40
40.0
 40
41.0
 40
41.0
 40
41.0
 40
41.0
 10
295.23779296875
 20
-388.673828125
 30
0.0
 10
294.72607421875
 20
-388.673828125
 30
0.0
 10
294.23779296875
 20
-388.59375
 30
0.0
 10
293.77392578125
 20
-388.43359375
 30
0.0
 10
293.31005859375
 20
-388.27392578125
 30
0.0
 10
292.90576171875
 20
-388.0498046875
 30
0.0
 10
292.56201171875
 20
-387.76171875
 30
0.0
 10
292.2177734375
 20
-387.4736328125
 30
0.0
 10
291.9658203125
 20
-387.1416015625
 30
0.0
 10
291.80615234375
 20
-386.765625
 30
0.0
 10
291.72607421875
 20
-386.59765625
 30
0.0
 10
291.72802734375
 20
-386.44189453125
 30
0.0
 10
291.81201171875
 20
-386.2978515625
 30
0.0
 10
291.89599609375
 20
-386.15380859375
 30
0.0
 10
292.0380859375
 20
-386.06201171875
 30
0.0
 10
292.23779296875
 20
-386.021484375
 30
0.0
 10
292.3818359375
 20
-385.98974609375
 30
0.0
 10
292.52392578125
 20
-386.01171875
 30
0.0
 10
292.6640625
 20
-386.087890625
 30
0.0
 10
292.8037109375
 20
-386.1640625
 30
0.0
 10
292.91015625
 20
-386.27783203125
 30
0.0
 10
292.98193359375
 20
-386.4296875
 30
0.0
 10
293.078125
 20
-386.6298828125
 30
0.0
 10
293.23583984375
 20
-386.8134765625
 30
0.0
 10
293.4560546875
 20
-386.98193359375
 30
0.0
 10
293.67578125
 20
-387.14990234375
 30
0.0
 10
293.94189453125
 20
-387.28564453125
 30
0.0
 10
294.25390625
 20
-387.3896484375
 30
0.0
 10
294.56591796875
 20
-387.49365234375
 30
0.0
 10
294.89404296875
 20
-387.5458984375
 30
0.0
 10
295.23779296875
 20
-387.5458984375
 30
0.0
 10
295.6220703125
 20
-387.5458984375
 30
0.0
 10
295.97607421875
 20
-387.48583984375
 30
0.0
 10
296.2998046875
 20
-387.36572265625
 30
0.0
 10
296.6240234375
 20
-387.24560546875
 30
0.0
 10
296.8857421875
 20
-387.07177734375
 30
0.0
 10
297.0859375
 20
-386.84375
 30
0.0
 10
297.28564453125
 20
-386.61572265625
 30
0.0
 10
297.38623046875
 20
-386.33349609375
 30
0.0
 10
297.38623046875
 20
-385.99755859375
 30
0.0
 10
297.38623046875
 20
-385.57373046875
 30
0.0
 10
297.2197265625
 20
-385.19384765625
 30
0.0
 10
296.88818359375
 20
-384.85791015625
 30
0.0
 10
296.55615234375
 20
-384.521484375
 30
0.0
 10
296.009765625
 20
-384.31396484375
 30
0.0
 10
295.25
 20
-384.23388671875
 30
0.0
 10
294.2578125
 20
-384.1376953125
 30
0.0
 10
293.47802734375
 20
-383.845703125
 30
0.0
 10
292.91015625
 20
-383.35791015625
 30
0.0
 10
292.341796875
 20
-382.86962890625
 30
0.0
 10
292.05810546875
 20
-382.265625
 30
0.0
 10
292.05810546875
 20
-381.5458984375
 30
0.0
 10
292.05810546875
 20
-381.017578125
 30
0.0
 10
292.2060546875
 20
-380.56982421875
 30
0.0
 10
292.501953125
 20
-380.20166015625
 30
0.0
 10
292.7978515625
 20
-379.833984375
 30
0.0
 10
293.19970703125
 20
-379.5537109375
 30
0.0
 10
293.7080078125
 20
-379.36181640625
 30
0.0
 10
294.2158203125
 20
-379.169921875
 30
0.0
 10
294.7822265625
 20
-379.07373046875
 30
0.0
 10
295.40625
 20
-379.07373046875
 30
0.0
 10
295.89404296875
 20
-379.07373046875
 30
0.0
 10
296.31982421875
 20
-379.1416015625
 30
0.0
 10
296.68408203125
 20
-379.27783203125
 30
0.0
 10
297.0478515625
 20
-379.4140625
 30
0.0
 10
297.36572265625
 20
-379.6015625
 30
0.0
 10
297.63818359375
 20
-379.841796875
 30
0.0
 10
297.90966796875
 20
-380.08154296875
 30
0.0
 10
298.14599609375
 20
-380.36572265625
 30
0.0
 10
298.34619140625
 20
-380.69384765625
 30
0.0
 10
298.4580078125
 20
-380.86962890625
 30
0.0
 10
298.50390625
 20
-381.03564453125
 30
0.0
 10
298.48388671875
 20
-381.19189453125
 30
0.0
 10
298.4638671875
 20
-381.34765625
 30
0.0
 10
298.3857421875
 20
-381.4697265625
 30
0.0
 10
298.25
 20
-381.5576171875
 30
0.0
 10
298.09814453125
 20
-381.65380859375
 30
0.0
 10
297.93408203125
 20
-381.673828125
 30
0.0
 10
297.7578125
 20
-381.61767578125
 30
0.0
 10
297.58203125
 20
-381.56201171875
 30
0.0
 10
297.44970703125
 20
-381.4580078125
 30
0.0
 10
297.36181640625
 20
-381.3056640625
 30
0.0
 10
297.23388671875
 20
-381.07373046875
 30
0.0
 10
297.078125
 20
-380.8779296875
 30
0.0
 10
296.89404296875
 20
-380.7177734375
 30
0.0
 10
296.7099609375
 20
-380.5576171875
 30
0.0
 10
296.49365234375
 20
-380.431640625
 30
0.0
 10
296.24609375
 20
-380.33984375
 30
0.0
 10
295.998046875
 20
-380.248046875
 30
0.0
 10
295.7060546875
 20
-380.20166015625
 30
0.0
 10
295.3701171875
 20
-380.20166015625
 30
0.0
 10
294.77783203125
 20
-380.19384765625
 30
0.0
 10
294.28173828125
 20
-380.3037109375
 30
0.0
 10
293.8818359375
 20
-380.53173828125
 30
0.0
 10
293.48193359375
 20
-380.759765625
 30
0.0
 10
293.2822265625
 20
-381.10986328125
 30
0.0
 10
293.2822265625
 20
-381.58154296875
 30
0.0
 10
293.2822265625
 20
-381.82177734375
 30
0.0
 10
293.34375
 20
-382.0517578125
 30
0.0
 10
293.4677734375
 20
-382.271484375
 30
0.0
 10
293.591796875
 20
-382.49169921875
 30
0.0
 10
293.81982421875
 20
-382.681640625
 30
0.0
 10
294.15185546875
 20
-382.841796875
 30
0.0
 10
294.48388671875
 20
-383.001953125
 30
0.0
 10
294.9619140625
 20
-383.11376953125
 30
0.0
 10
295.5859375
 20
-383.177734375
 30
0.0
 10
296.5380859375
 20
-383.27392578125
 30
0.0
 10
297.27978515625
 20
-383.56396484375
 30
0.0
 10
297.81201171875
 20
-384.0478515625
 30
0.0
 10
298.34375
 20
-384.53173828125
 30
0.0
 10
298.60986328125
 20
-385.169921875
 30
0.0
 10
298.60986328125
 20
-385.9619140625
 30
0.0
 10
298.60986328125
 20
-386.41748046875
 30
0.0
 10
298.51611328125
 20
-386.8134765625
 30
0.0
 10
298.328125
 20
-387.14990234375
 30
0.0
 10
298.14013671875
 20
-387.48583984375
 30
0.0
 10
297.88818359375
 20
-387.767578125
 30
0.0
 10
297.57177734375
 20
-387.99560546875
 30
0.0
 10
297.255859375
 20
-388.2236328125
 30
0.0
 10
296.89599609375
 20
-388.3935546875
 30
0.0
 10
296.4921875
 20
-388.505859375
 30
0.0
 10
296.087890625
 20
-388.61767578125
 30
0.0
 10
295.669921875
 20
-388.673828125
 30
0.0
 10
295.23779296875
 20
-388.673828125
 30
0.0
  0
HATCH
  5
8F
330
81
100
AcDbEntity
  8
Layer 1
 62
   250
420
  2301728
440
 33554687
100
AcDbHatch
 10
0.0
 20
0.0
 30
0.0
210
0.0
220
0.0
230
1.0
  2
SOLID
 70
     1
 71
     1
 91
        1
 92
        1
 93
        1
 72
     4
 94
        3
 73
     0
 74
     0
 95
      128
 96
      124
 40
0.0
 40
0.0
 40
0.0
 40
0.0
 40
1.0
 40
1.0
 40
1.0
 40
2.0
 40
2.0
 40
2.0
 40
3.0
 40
3.0
 40
3.0
 40
4.0
 40
4.0
 40
4.0
 40
5.0
 40
5.0
 40
5.0
 40
6.0
 40
6.0
 40
6.0
 40
7.0
 40
7.0
 40
7.0
 40
8.0
 40
8.0
 40
8.0
 40
9.0
 40
9.0
 40
9.0
 40
10.0
 40
10.0
 40
10.0
 40
11.0
 40
11.0
 40
11.0
 40
12.0
 40
12.0
 40
12.0
 40
13.0
 40
13.0
 40
13.0
 40
14.0
 40
14.0
 40
14.0
 40
15.0
 40
15.0
 40
15.0
 40
16.0
 40
16.0
 40
16.0
 40
17.0
 40
17.0
 40
17.0
 40
18.0
 40
18.0
 40
18.0
 40
19.0
 40
19.0
 40
19.0
 40
20.0
 40
20.0
 40
20.0
 40
21.0
 40
21.0
 40
21.0
 40
22.0
 40
22.0
 40
22.0
 40
23.0
 40
23.0
 40
23.0
 40
24.0
 40
24.0
 40
24.0
 40
25.0
 40
25.0
 40
25.0
 40
26.0
 40
26.0
 40
26.0
 40
27.0
 40
27.0
 40
27.0
 40
28.0
 40
28.0
 40
28.0
 40
29.0
 40
29.0
 40
29.0
 40
30.0
 40
30.0
 40
30.0
 40
31.0
 40
31.0
 40
31.0
 40
32.0
 40
32.0
 40
32.0
 40
33.0
 40
33.0
 40
33.0
 40
34.0
 40
34.0
 40
34.0
 40
35.0
 40
35.0
 40
35.0
 40
36.0
 40
36.0
 40
36.0
 40
37.0
 40
37.0
 40
37.0
 40
38.0
 40
38.0
 40
38.0
 40
39.0
 40
39.0
 40
39.0
 40
40.0
 40
40.0
 40
40.0
 40
41.0
 40
41.0
 40
41.0
 40
41.0
 10
295.23779296875
 20
-388.673828125
 10
294.72607421875
 20
-388.673828125
 10
294.23779296875
 20
-388.59375
 10
293.77392578125
 20
-388.43359375
 10
293.31005859375
 20
-388.27392578125
 10
292.90576171875
 20
-388.0498046875
 10
292.56201171875
 20
-387.76171875
 10
292.2177734375
 20
-387.4736328125
 10
291.9658203125
 20
-387.1416015625
 10
291.80615234375
 20
-386.765625
 10
291.72607421875
 20
-386.59765625
 10
291.72802734375
 20
-386.44189453125
 10
291.81201171875
 20
-386.2978515625
 10
291.89599609375
 20
-386.15380859375
 10
292.0380859375
 20
-386.06201171875
 10
292.23779296875
 20
-386.021484375
 10
292.3818359375
 20
-385.98974609375
 10
292.52392578125
 20
-386.01171875
 10
292.6640625
 20
-386.087890625
 10
292.8037109375
 20
-386.1640625
 10
292.91015625
 20
-386.27783203125
 10
292.98193359375
 20
-386.4296875
 10
293.078125
 20
-386.6298828125
 10
293.23583984375
 20
-386.8134765625
 10
293.4560546875
 20
-386.98193359375
 10
293.67578125
 20
-387.14990234375
 10
293.94189453125
 20
-387.28564453125
 10
294.25390625
 20
-387.3896484375
 10
294.56591796875
 20
-387.49365234375
 10
294.89404296875
 20
-387.5458984375
 10
295.23779296875
 20
-387.5458984375
 10
295.6220703125
 20
-387.5458984375
 10
295.97607421875
 20
-387.48583984375
 10
296.2998046875
 20
-387.36572265625
 10
296.6240234375
 20
-387.24560546875
 10
296.8857421875
 20
-387.07177734375
 10
297.0859375
 20
-386.84375
 10
297.28564453125
 20
-386.61572265625
 10
297.38623046875
 20
-386.33349609375
 10
297.38623046875
 20
-385.99755859375
 10
297.38623046875
 20
-385.57373046875
 10
297.2197265625
 20
-385.19384765625
 10
296.88818359375
 20
-384.85791015625
 10
296.55615234375
 20
-384.521484375
 10
296.009765625
 20
-384.31396484375
 10
295.25
 20
-384.23388671875
 10
294.2578125
 20
-384.1376953125
 10
293.47802734375
 20
-383.845703125
 10
292.91015625
 20
-383.35791015625
 10
292.341796875
 20
-382.86962890625
 10
292.05810546875
 20
-382.265625
 10
292.05810546875
 20
-381.5458984375
 10
292.05810546875
 20
-381.017578125
 10
292.2060546875
 20
-380.56982421875
 10
292.501953125
 20
-380.20166015625
 10
292.7978515625
 20
-379.833984375
 10
293.19970703125
 20
-379.5537109375
 10
293.7080078125
 20
-379.36181640625
 10
294.2158203125
 20
-379.169921875
 10
294.7822265625
 20
-379.07373046875
 10
295.40625
 20
-379.07373046875
 10
295.89404296875
 20
-379.07373046875
 10
296.31982421875
 20
-379.1416015625
 10
296.68408203125
 20
-379.27783203125
 10
297.0478515625
 20
-379.4140625
 10
297.36572265625
 20
-379.6015625
 10
297.63818359375
 20
-379.841796875
 10
297.90966796875
 20
-380.08154296875
 10
298.14599609375
 20
-380.36572265625
 10
298.34619140625
 20
-380.69384765625
 10
298.4580078125
 20
-380.86962890625
 10
298.50390625
 20
-381.03564453125
 10
298.48388671875
 20
-381.19189453125
 10
298.4638671875
 20
-381.34765625
 10
298.3857421875
 20
-381.4697265625
 10
298.25
 20
-381.5576171875
 10
298.09814453125
 20
-381.65380859375
 10
297.93408203125
 20
-381.673828125
 10
297.7578125
 20
-381.61767578125
 10
297.58203125
 20
-381.56201171875
 10
297.44970703125
 20
-381.4580078125
 10
297.36181640625
 20
-381.3056640625
 10
297.23388671875
 20
-381.07373046875
 10
297.078125
 20
-380.8779296875
 10
296.89404296875
 20
-380.7177734375
 10
296.7099609375
 20
-380.5576171875
 10
296.49365234375
 20
-380.431640625
 10
296.24609375
 20
-380.33984375
 10
295.998046875
 20
-380.248046875
 10
295.7060546875
 20
-380.20166015625
 10
295.3701171875
 20
-380.20166015625
 10
294.77783203125
 20
-380.19384765625
 10
294.28173828125
 20
-380.3037109375
 10
293.8818359375
 20
-380.53173828125
 10
293.48193359375
 20
-380.759765625
 10
293.2822265625
 20
-381.10986328125
 10
293.2822265625
 20
-381.58154296875
 10
293.2822265625
 20
-381.82177734375
 10
293.34375
 20
-382.0517578125
 10
293.4677734375
 20
-382.271484375
 10
293.591796875
 20
-382.49169921875
 10
293.81982421875
 20
-382.681640625
 10
294.15185546875
 20
-382.841796875
 10
294.48388671875
 20
-383.001953125
 10
294.9619140625
 20
-383.11376953125
 10
295.5859375
 20
-383.177734375
 10
296.5380859375
 20
-383.27392578125
 10
297.27978515625
 20
-383.56396484375
 10
297.81201171875
 20
-384.0478515625
 10
298.34375
 20
-384.53173828125
 10
298.60986328125
 20
-385.169921875
 10
298.60986328125
 20
-385.9619140625
 10
298.60986328125
 20
-386.41748046875
 10
298.51611328125
 20
-386.8134765625
 10
298.328125
 20
-387.14990234375
 10
298.14013671875
 20
-387.48583984375
 10
297.88818359375
 20
-387.767578125
 10
297.57177734375
 20
-387.99560546875
 10
297.255859375
 20
-388.2236328125
 10
296.89599609375
 20
-388.3935546875
 10
296.4921875
 20
-388.505859375
 10
296.087890625
 20
-388.61767578125
 10
295.669921875
 20
-388.673828125
 10
295.23779296875
 20
-388.673828125
 97
        0
 97
        1
330
8E
 75
     2
 76
     1
 98
        1
 10
0.0
 20
0.0
450
        0
451
        0
460
0.0
461
0.0
452
        0
462
0.0
453
        0
470

  0
SPLINE
  5
90
330
81
100
AcDbEntity
  8
Layer 1
100
AcDbSpline
210
0.0
220
0.0
230
1.0
 70
    11
 71
     3
 72
    32
 73
    28
 74
     0
 42
0.0000000001
 43
0.0000000001
 40
0.0
 40
0.0
 40
0.0
 40
0.0
 40
1.0
 40
1.0
 40
1.0
 40
2.0
 40
2.0
 40
2.0
 40
3.0
 40
3.0
 40
3.0
 40
4.0
 40
4.0
 40
4.0
 40
5.0
 40
5.0
 40
5.0
 40
6.0
 40
6.0
 40
6.0
 40
7.0
 40
7.0
 40
7.0
 40
8.0
 40
8.0
 40
8.0
 40
9.0
 40
9.0
 40
9.0
 40
9.0
 10
301.76611328125
 20
-384.14990234375
 30
0.0
 10
301.76611328125
 20
-384.14990234375
 30
0.0
 10
303.5419921875
 20
-384.14990234375
 30
0.0
 10
303.5419921875
 20
-384.14990234375
 30
0.0
 10
303.90966796875
 20
-384.14990234375
 30
0.0
 10
304.23388671875
 20
-384.06982421875
 30
0.0
 10
304.513671875
 20
-383.90966796875
 30
0.0
 10
304.7939453125
 20
-383.75
 30
0.0
 10
305.013671875
 20
-383.52978515625
 30
0.0
 10
305.173828125
 20
-383.24951171875
 30
0.0
 10
305.333984375
 20
-382.9697265625
 30
0.0
 10
305.4140625
 20
-382.64990234375
 30
0.0
 10
305.4140625
 20
-382.28955078125
 30
0.0
 10
305.4140625
 20
-381.90576171875
 30
0.0
 10
305.333984375
 20
-381.56787109375
 30
0.0
 10
305.173828125
 20
-381.27587890625
 30
0.0
 10
305.013671875
 20
-380.98388671875
 30
0.0
 10
304.7939453125
 20
-380.75390625
 30
0.0
 10
304.513671875
 20
-380.5859375
 30
0.0
 10
304.23388671875
 20
-380.41748046875
 30
0.0
 10
303.90966796875
 20
-380.33349609375
 30
0.0
 10
303.5419921875
 20
-380.33349609375
 30
0.0
 10
303.5419921875
 20
-380.33349609375
 30
0.0
 10
301.76611328125
 20
-380.33349609375
 30
0.0
 10
301.76611328125
 20
-380.33349609375
 30
0.0
 10
301.76611328125
 20
-380.33349609375
 30
0.0
 10
301.76611328125
 20
-384.14990234375
 30
0.0
 10
301.76611328125
 20
-384.14990234375
 30
0.0
  0
SPLINE
  5
91
330
81
100
AcDbEntity
  8
Layer 1
100
AcDbSpline
210
0.0
220
0.0
230
1.0
 70
     9
 71
     3
 72
    53
 73
    49
 74
     0
 42
0.0000000001
 43
0.0000000001
 40
0.0
 40
0.0
 40
0.0
 40
0.0
 40
1.0
 40
1.0
 40
1.0
 40
2.0
 40
2.0
 40
2.0
 40
3.0
 40
3.0
 40
3.0
 40
4.0
 40
4.0
 40
4.0
 40
5.0
 40
5.0
 40
5.0
 40
6.0
 40
6.0
 40
6.0
 40
7.0
 40
7.0
 40
7.0
 40
8.0
 40
8.0
 40
8.0
 40
9.0
 40
9.0
 40
9.0
 40
10.0
 40
10.0
 40
10.0
 40
11.0
 40
11.0
 40
11.0
 40
12.0
 40
12.0
 40
12.0
 40
13.0
 40
13.0
 40
13.0
 40
14.0
 40
14.0
 40
14.0
 40
15.0
 40
15.0
 40
15.0
 40
16.0
 40
16.0
 40
16.0
 40
16.0
 10
301.14208984375
 20
-388.5537109375
 30
0.0
 10
300.9658203125
 20
-388.5537109375
 30
0.0
 10
300.81787109375
 20
-388.49365234375
 30
0.0
 10
300.69775390625
 20
-388.37353515625
 30
0.0
 10
300.57763671875
 20
-388.25390625
 30
0.0
 10
300.51806640625
 20
-388.10595703125
 30
0.0
 10
300.51806640625
 20
-387.9296875
 30
0.0
 10
300.51806640625
 20
-387.9296875
 30
0.0
 10
300.51806640625
 20
-379.8056640625
 30
0.0
 10
300.51806640625
 20
-379.8056640625
 30
0.0
 10
300.51806640625
 20
-379.62158203125
 30
0.0
 10
300.57763671875
 20
-379.4716796875
 30
0.0
 10
300.69775390625
 20
-379.35546875
 30
0.0
 10
300.81787109375
 20
-379.23974609375
 30
0.0
 10
300.9658203125
 20
-379.181640625
 30
0.0
 10
301.14208984375
 20
-379.181640625
 30
0.0
 10
301.14208984375
 20
-379.181640625
 30
0.0
 10
303.5419921875
 20
-379.181640625
 30
0.0
 10
303.5419921875
 20
-379.181640625
 30
0.0
 10
304.14208984375
 20
-379.181640625
 30
0.0
 10
304.673828125
 20
-379.3134765625
 30
0.0
 10
305.1376953125
 20
-379.57763671875
 30
0.0
 10
305.6015625
 20
-379.841796875
 30
0.0
 10
305.9638671875
 20
-380.20751953125
 30
0.0
 10
306.2236328125
 20
-380.67578125
 30
0.0
 10
306.48388671875
 20
-381.1435546875
 30
0.0
 10
306.61376953125
 20
-381.681640625
 30
0.0
 10
306.61376953125
 20
-382.28955078125
 30
0.0
 10
306.61376953125
 20
-382.87353515625
 30
0.0
 10
306.48388671875
 20
-383.3935546875
 30
0.0
 10
306.2236328125
 20
-383.849609375
 30
0.0
 10
305.9638671875
 20
-384.3056640625
 30
0.0
 10
305.6015625
 20
-384.66162109375
 30
0.0
 10
305.1376953125
 20
-384.91748046875
 30
0.0
 10
304.673828125
 20
-385.173828125
 30
0.0
 10
304.14208984375
 20
-385.3017578125
 30
0.0
 10
303.5419921875
 20
-385.3017578125
 30
0.0
 10
303.5419921875
 20
-385.3017578125
 30
0.0
 10
301.76611328125
 20
-385.3017578125
 30
0.0
 10
301.76611328125
 20
-385.3017578125
 30
0.0
 10
301.76611328125
 20
-385.3017578125
 30
0.0
 10
301.76611328125
 20
-387.9296875
 30
0.0
 10
301.76611328125
 20
-387.9296875
 30
0.0
 10
301.76611328125
 20
-388.10595703125
 30
0.0
 10
301.70751953125
 20
-388.25390625
 30
0.0
 10
301.591796875
 20
-388.37353515625
 30
0.0
 10
301.4755859375
 20
-388.49365234375
 30
0.0
 10
301.32568359375
 20
-388.5537109375
 30
0.0
 10
301.14208984375
 20
-388.5537109375
 30
0.0
  0
HATCH
  5
92
330
81
100
AcDbEntity
  8
Layer 1
 62
   250
420
  2301728
440
 33554687
100
AcDbHatch
 10
0.0
 20
0.0
 30
0.0
210
0.0
220
0.0
230
1.0
  2
SOLID
 70
     1
 71
     1
 91
        2
 92
        1
 93
        1
 72
     4
 94
        3
 73
     0
 74
     0
 95
       32
 96
       28
 40
0.0
 40
0.0
 40
0.0
 40
0.0
 40
1.0
 40
1.0
 40
1.0
 40
2.0
 40
2.0
 40
2.0
 40
3.0
 40
3.0
 40
3.0
 40
4.0
 40
4.0
 40
4.0
 40
5.0
 40
5.0
 40
5.0
 40
6.0
 40
6.0
 40
6.0
 40
7.0
 40
7.0
 40
7.0
 40
8.0
 40
8.0
 40
8.0
 40
9.0
 40
9.0
 40
9.0
 40
9.0
 10
301.76611328125
 20
-384.14990234375
 10
301.76611328125
 20
-384.14990234375
 10
303.5419921875
 20
-384.14990234375
 10
303.5419921875
 20
-384.14990234375
 10
303.90966796875
 20
-384.14990234375
 10
304.23388671875
 20
-384.06982421875
 10
304.513671875
 20
-383.90966796875
 10
304.7939453125
 20
-383.75
 10
305.013671875
 20
-383.52978515625
 10
305.173828125
 20
-383.24951171875
 10
305.333984375
 20
-382.9697265625
 10
305.4140625
 20
-382.64990234375
 10
305.4140625
 20
-382.28955078125
 10
305.4140625
 20
-381.90576171875
 10
305.333984375
 20
-381.56787109375
 10
305.173828125
 20
-381.27587890625
 10
305.013671875
 20
-380.98388671875
 10
304.7939453125
 20
-380.75390625
 10
304.513671875
 20
-380.5859375
 10
304.23388671875
 20
-380.41748046875
 10
303.90966796875
 20
-380.33349609375
 10
303.5419921875
 20
-380.33349609375
 10
303.5419921875
 20
-380.33349609375
 10
301.76611328125
 20
-380.33349609375
 10
301.76611328125
 20
-380.33349609375
 10
301.76611328125
 20
-380.33349609375
 10
301.76611328125
 20
-384.14990234375
 10
301.76611328125
 20
-384.14990234375
 97
        0
 97
        1
330
90
 92
        1
 93
        1
 72
     4
 94
        3
 73
     0
 74
     0
 95
       53
 96
       49
 40
0.0
 40
0.0
 40
0.0
 40
0.0
 40
1.0
 40
1.0
 40
1.0
 40
2.0
 40
2.0
 40
2.0
 40
3.0
 40
3.0
 40
3.0
 40
4.0
 40
4.0
 40
4.0
 40
5.0
 40
5.0
 40
5.0
 40
6.0
 40
6.0
 40
6.0
 40
7.0
 40
7.0
 40
7.0
 40
8.0
 40
8.0
 40
8.0
 40
9.0
 40
9.0
 40
9.0
 40
10.0
 40
10.0
 40
10.0
 40
11.0
 40
11.0
 40
11.0
 40
12.0
 40
12.0
 40
12.0
 40
13.0
 40
13.0
 40
13.0
 40
14.0
 40
14.0
 40
14.0
 40
15.0
 40
15.0
 40
15.0
 40
16.0
 40
16.0
 40
16.0
 40
16.0
 10
301.14208984375
 20
-388.5537109375
 10
300.9658203125
 20
-388.5537109375
 10
300.81787109375
 20
-388.49365234375
 10
300.69775390625
 20
-388.37353515625
 10
300.57763671875
 20
-388.25390625
 10
300.51806640625
 20
-388.10595703125
 10
300.51806640625
 20
-387.9296875
 10
300.51806640625
 20
-387.9296875
 10
300.51806640625
 20
-379.8056640625
 10
300.51806640625
 20
-379.8056640625
 10
300.51806640625
 20
-379.62158203125
 10
300.57763671875
 20
-379.4716796875
 10
300.69775390625
 20
-379.35546875
 10
300.81787109375
 20
-379.23974609375
 10
300.9658203125
 20
-379.181640625
 10
301.14208984375
 20
-379.181640625
 10
301.14208984375
 20
-379.181640625
 10
303.5419921875
 20
-379.181640625
 10
303.5419921875
 20
-379.181640625
 10
304.14208984375
 20
-379.181640625
 10
304.673828125
 20
-379.3134765625
 10
305.1376953125
 20
-379.57763671875
 10
305.6015625
 20
-379.841796875
 10
305.9638671875
 20
-380.20751953125
 10
306.2236328125
 20
-380.67578125
 10
306.48388671875
 20
-381.1435546875
 10
306.61376953125
 20
-381.681640625
 10
306.61376953125
 20
-382.28955078125
 10
306.61376953125
 20
-382.87353515625
 10
306.48388671875
 20
-383.3935546875
 10
306.2236328125
 20
-383.849609375
 10
305.9638671875
 20
-384.3056640625
 10
305.6015625
 20
-384.66162109375
 10
305.1376953125
 20
-384.91748046875
 10
304.673828125
 20
-385.173828125
 10
304.14208984375
 20
-385.3017578125
 10
303.5419921875
 20
-385.3017578125
 10
303.5419921875
 20
-385.3017578125
 10
301.76611328125
 20
-385.3017578125
 10
301.76611328125
 20
-385.3017578125
 10
301.76611328125
 20
-385.3017578125
 10
301.76611328125
 20
-387.9296875
 10
301.76611328125
 20
-387.9296875
 10
301.76611328125
 20
-388.10595703125
 10
301.70751953125
 20
-388.25390625
 10
301.591796875
 20
-388.37353515625
 10
301.4755859375
 20
-388.49365234375
 10
301.32568359375
 20
-388.5537109375
 10
301.14208984375
 20
-388.5537109375
 97
        0
 97
        1
330
91
 75
     2
 76
     1
 98
        1
 10
0.0
 20
0.0
450
        0
451
        0
460
0.0
461
0.0
452
        0
462
0.0
453
        0
470

  0
SPLINE
  5
93
330
81
100
AcDbEntity
  8
Layer 1
100
AcDbSpline
210
0.0
220
0.0
230
1.0
 70
     9
 71
     3
 72
    80
 73
    76
 74
     0
 42
0.0000000001
 43
0.0000000001
 40
0.0
 40
0.0
 40
0.0
 40
0.0
 40
1.0
 40
1.0
 40
1.0
 40
2.0
 40
2.0
 40
2.0
 40
3.0
 40
3.0
 40
3.0
 40
4.0
 40
4.0
 40
4.0
 40
5.0
 40
5.0
 40
5.0
 40
6.0
 40
6.0
 40
6.0
 40
7.0
 40
7.0
 40
7.0
 40
8.0
 40
8.0
 40
8.0
 40
9.0
 40
9.0
 40
9.0
 40
10.0
 40
10.0
 40
10.0
 40
11.0
 40
11.0
 40
11.0
 40
12.0
 40
12.0
 40
12.0
 40
13.0
 40
13.0
 40
13.0
 40
14.0
 40
14.0
 40
14.0
 40
15.0
 40
15.0
 40
15.0
 40
16.0
 40
16.0
 40
16.0
 40
17.0
 40
17.0
 40
17.0
 40
18.0
 40
18.0
 40
18.0
 40
19.0
 40
19.0
 40
19.0
 40
20.0
 40
20.0
 40
20.0
 40
21.0
 40
21.0
 40
21.0
 40
22.0
 40
22.0
 40
22.0
 40
23.0
 40
23.0
 40
23.0
 40
24.0
 40
24.0
 40
24.0
 40
25.0
 40
25.0
 40
25.0
 40
25.0
 10
308.6171875
 20
-388.5537109375
 30
0.0
 10
308.44140625
 20
-388.5537109375
 30
0.0
 10
308.29296875
 20
-388.49365234375
 30
0.0
 10
308.1728515625
 20
-388.37353515625
 30
0.0
 10
308.052734375
 20
-388.25390625
 30
0.0
 10
307.9931640625
 20
-388.10595703125
 30
0.0
 10
307.9931640625
 20
-387.9296875
 30
0.0
 10
307.9931640625
 20
-387.9296875
 30
0.0
 10
307.9931640625
 20
-379.8056640625
 30
0.0
 10
307.9931640625
 20
-379.8056640625
 30
0.0
 10
307.9931640625
 20
-379.62158203125
 30
0.0
 10
308.052734375
 20
-379.4716796875
 30
0.0
 10
308.1728515625
 20
-379.35546875
 30
0.0
 10
308.29296875
 20
-379.23974609375
 30
0.0
 10
308.44140625
 20
-379.181640625
 30
0.0
 10
308.6171875
 20
-379.181640625
 30
0.0
 10
308.6171875
 20
-379.181640625
 30
0.0
 10
314.041015625
 20
-379.181640625
 30
0.0
 10
314.041015625
 20
-379.181640625
 30
0.0
 10
314.2255859375
 20
-379.181640625
 30
0.0
 10
314.373046875
 20
-379.23583984375
 30
0.0
 10
314.4853515625
 20
-379.34375
 30
0.0
 10
314.5966796875
 20
-379.45166015625
 30
0.0
 10
314.6533203125
 20
-379.59375
 30
0.0
 10
314.6533203125
 20
-379.76953125
 30
0.0
 10
314.6533203125
 20
-379.9375
 30
0.0
 10
314.5966796875
 20
-380.07373046875
 30
0.0
 10
314.4853515625
 20
-380.177734375
 30
0.0
 10
314.373046875
 20
-380.28173828125
 30
0.0
 10
314.2255859375
 20
-380.33349609375
 30
0.0
 10
314.041015625
 20
-380.33349609375
 30
0.0
 10
314.041015625
 20
-380.33349609375
 30
0.0
 10
309.2412109375
 20
-380.33349609375
 30
0.0
 10
309.2412109375
 20
-380.33349609375
 30
0.0
 10
309.2412109375
 20
-380.33349609375
 30
0.0
 10
309.2412109375
 20
-383.24951171875
 30
0.0
 10
309.2412109375
 20
-383.24951171875
 30
0.0
 10
309.2412109375
 20
-383.24951171875
 30
0.0
 10
312.685546875
 20
-383.24951171875
 30
0.0
 10
312.685546875
 20
-383.24951171875
 30
0.0
 10
312.869140625
 20
-383.24951171875
 30
0.0
 10
313.0166015625
 20
-383.3037109375
 30
0.0
 10
313.12890625
 20
-383.41162109375
 30
0.0
 10
313.2412109375
 20
-383.51953125
 30
0.0
 10
313.296875
 20
-383.65771484375
 30
0.0
 10
313.296875
 20
-383.82568359375
 30
0.0
 10
313.296875
 20
-383.99365234375
 30
0.0
 10
313.2412109375
 20
-384.1318359375
 30
0.0
 10
313.12890625
 20
-384.23974609375
 30
0.0
 10
313.0166015625
 20
-384.34765625
 30
0.0
 10
312.869140625
 20
-384.40185546875
 30
0.0
 10
312.685546875
 20
-384.40185546875
 30
0.0
 10
312.685546875
 20
-384.40185546875
 30
0.0
 10
309.2412109375
 20
-384.40185546875
 30
0.0
 10
309.2412109375
 20
-384.40185546875
 30
0.0
 10
309.2412109375
 20
-384.40185546875
 30
0.0
 10
309.2412109375
 20
-387.40185546875
 30
0.0
 10
309.2412109375
 20
-387.40185546875
 30
0.0
 10
309.2412109375
 20
-387.40185546875
 30
0.0
 10
314.041015625
 20
-387.40185546875
 30
0.0
 10
314.041015625
 20
-387.40185546875
 30
0.0
 10
314.2255859375
 20
-387.40185546875
 30
0.0
 10
314.373046875
 20
-387.45361328125
 30
0.0
 10
314.4853515625
 20
-387.5576171875
 30
0.0
 10
314.5966796875
 20
-387.66162109375
 30
0.0
 10
314.6533203125
 20
-387.7978515625
 30
0.0
 10
314.6533203125
 20
-387.9658203125
 30
0.0
 10
314.6533203125
 20
-388.1416015625
 30
0.0
 10
314.5966796875
 20
-388.28369140625
 30
0.0
 10
314.4853515625
 20
-388.3916015625
 30
0.0
 10
314.373046875
 20
-388.49951171875
 30
0.0
 10
314.2255859375
 20
-388.5537109375
 30
0.0
 10
314.041015625
 20
-388.5537109375
 30
0.0
 10
314.041015625
 20
-388.5537109375
 30
0.0
 10
308.6171875
 20
-388.5537109375
 30
0.0
 10
308.6171875
 20
-388.5537109375
 30
0.0
  0
HATCH
  5
94
330
81
100
AcDbEntity
  8
Layer 1
 62
   250
420
  2301728
440
 33554687
100
AcDbHatch
 10
0.0
 20
0.0
 30
0.0
210
0.0
220
0.0
230
1.0
  2
SOLID
 70
     1
 71
     1
 91
        1
 92
        1
 93
        1
 72
     4
 94
        3
 73
     0
 74
     0
 95
       80
 96
       76
 40
0.0
 40
0.0
 40
0.0
 40
0.0
 40
1.0
 40
1.0
 40
1.0
 40
2.0
 40
2.0
 40
2.0
 40
3.0
 40
3.0
 40
3.0
 40
4.0
 40
4.0
 40
4.0
 40
5.0
 40
5.0
 40
5.0
 40
6.0
 40
6.0
 40
6.0
 40
7.0
 40
7.0
 40
7.0
 40
8.0
 40
8.0
 40
8.0
 40
9.0
 40
9.0
 40
9.0
 40
10.0
 40
10.0
 40
10.0
 40
11.0
 40
11.0
 40
11.0
 40
12.0
 40
12.0
 40
12.0
 40
13.0
 40
13.0
 40
13.0
 40
14.0
 40
14.0
 40
14.0
 40
15.0
 40
15.0
 40
15.0
 40
16.0
 40
16.0
 40
16.0
 40
17.0
 40
17.0
 40
17.0
 40
18.0
 40
18.0
 40
18.0
 40
19.0
 40
19.0
 40
19.0
 40
20.0
 40
20.0
 40
20.0
 40
21.0
 40
21.0
 40
21.0
 40
22.0
 40
22.0
 40
22.0
 40
23.0
 40
23.0
 40
23.0
 40
24.0
 40
24.0
 40
24.0
 40
25.0
 40
25.0
 40
25.0
 40
25.0
 10
308.6171875
 20
-388.5537109375
 10
308.44140625
 20
-388.5537109375
 10
308.29296875
 20
-388.49365234375
 10
308.1728515625
 20
-388.37353515625
 10
308.052734375
 20
-388.25390625
 10
307.9931640625
 20
-388.10595703125
 10
307.9931640625
 20
-387.9296875
 10
307.9931640625
 20
-387.9296875
 10
307.9931640625
 20
-379.8056640625
 10
307.9931640625
 20
-379.8056640625
 10
307.9931640625
 20
-379.62158203125
 10
308.052734375
 20
-379.4716796875
 10
308.1728515625
 20
-379.35546875
 10
308.29296875
 20
-379.23974609375
 10
308.44140625
 20
-379.181640625
 10
308.6171875
 20
-379.181640625
 10
308.6171875
 20
-379.181640625
 10
314.041015625
 20
-379.181640625
 10
314.041015625
 20
-379.181640625
 10
314.2255859375
 20
-379.181640625
 10
314.373046875
 20
-379.23583984375
 10
314.4853515625
 20
-379.34375
 10
314.5966796875
 20
-379.45166015625
 10
314.6533203125
 20
-379.59375
 10
314.6533203125
 20
-379.76953125
 10
314.6533203125
 20
-379.9375
 10
314.5966796875
 20
-380.07373046875
 10
314.4853515625
 20
-380.177734375
 10
314.373046875
 20
-380.28173828125
 10
314.2255859375
 20
-380.33349609375
 10
314.041015625
 20
-380.33349609375
 10
314.041015625
 20
-380.33349609375
 10
309.2412109375
 20
-380.33349609375
 10
309.2412109375
 20
-380.33349609375
 10
309.2412109375
 20
-380.33349609375
 10
309.2412109375
 20
-383.24951171875
 10
309.2412109375
 20
-383.24951171875
 10
309.2412109375
 20
-383.24951171875
 10
312.685546875
 20
-383.24951171875
 10
312.685546875
 20
-383.24951171875
 10
312.869140625
 20
-383.24951171875
 10
313.0166015625
 20
-383.3037109375
 10
313.12890625
 20
-383.41162109375
 10
313.2412109375
 20
-383.51953125
 10
313.296875
 20
-383.65771484375
 10
313.296875
 20
-383.82568359375
 10
313.296875
 20
-383.99365234375
 10
313.2412109375
 20
-384.1318359375
 10
313.12890625
 20
-384.23974609375
 10
313.0166015625
 20
-384.34765625
 10
312.869140625
 20
-384.40185546875
 10
312.685546875
 20
-384.40185546875
 10
312.685546875
 20
-384.40185546875
 10
309.2412109375
 20
-384.40185546875
 10
309.2412109375
 20
-384.40185546875
 10
309.2412109375
 20
-384.40185546875
 10
309.2412109375
 20
-387.40185546875
 10
309.2412109375
 20
-387.40185546875
 10
309.2412109375
 20
-387.40185546875
 10
314.041015625
 20
-387.40185546875
 10
314.041015625
 20
-387.40185546875
 10
314.2255859375
 20
-387.40185546875
 10
314.373046875
 20
-387.45361328125
 10
314.4853515625
 20
-387.5576171875
 10
314.5966796875
 20
-387.66162109375
 10
314.6533203125
 20
-387.7978515625
 10
314.6533203125
 20
-387.9658203125
 10
314.6533203125
 20
-388.1416015625
 10
314.5966796875
 20
-388.28369140625
 10
314.4853515625
 20
-388.3916015625
 10
314.373046875
 20
-388.49951171875
 10
314.2255859375
 20
-388.5537109375
 10
314.041015625
 20
-388.5537109375
 10
314.041015625
 20
-388.5537109375
 10
308.6171875
 20
-388.5537109375
 10
308.6171875
 20
-388.5537109375
 97
        0
 97
        1
330
93
 75
     2
 76
     1
 98
        1
 10
0.0
 20
0.0
450
        0
451
        0
460
0.0
461
0.0
452
        0
462
0.0
453
        0
470

  0
SPLINE
  5
95
330
81
100
AcDbEntity
  8
Layer 1
100
AcDbSpline
210
0.0
220
0.0
230
1.0
 70
     9
 71
     3
 72
    68
 73
    64
 74
     0
 42
0.0000000001
 43
0.0000000001
 40
0.0
 40
0.0
 40
0.0
 40
0.0
 40
1.0
 40
1.0
 40
1.0
 40
2.0
 40
2.0
 40
2.0
 40
3.0
 40
3.0
 40
3.0
 40
4.0
 40
4.0
 40
4.0
 40
5.0
 40
5.0
 40
5.0
 40
6.0
 40
6.0
 40
6.0
 40
7.0
 40
7.0
 40
7.0
 40
8.0
 40
8.0
 40
8.0
 40
9.0
 40
9.0
 40
9.0
 40
10.0
 40
10.0
 40
10.0
 40
11.0
 40
11.0
 40
11.0
 40
12.0
 40
12.0
 40
12.0
 40
13.0
 40
13.0
 40
13.0
 40
14.0
 40
14.0
 40
14.0
 40
15.0
 40
15.0
 40
15.0
 40
16.0
 40
16.0
 40
16.0
 40
17.0
 40
17.0
 40
17.0
 40
18.0
 40
18.0
 40
18.0
 40
19.0
 40
19.0
 40
19.0
 40
20.0
 40
20.0
 40
20.0
 40
21.0
 40
21.0
 40
21.0
 40
21.0
 10
317.0048828125
 20
-388.5537109375
 30
0.0
 10
316.8291015625
 20
-388.5537109375
 30
0.0
 10
316.6826171875
 20
-388.49365234375
 30
0.0
 10
316.5673828125
 20
-388.37353515625
 30
0.0
 10
316.451171875
 20
-388.25390625
 30
0.0
 10
316.3935546875
 20
-388.10595703125
 30
0.0
 10
316.3935546875
 20
-387.9296875
 30
0.0
 10
316.3935546875
 20
-387.9296875
 30
0.0
 10
316.3935546875
 20
-379.8056640625
 30
0.0
 10
316.3935546875
 20
-379.8056640625
 30
0.0
 10
316.3935546875
 20
-379.62158203125
 30
0.0
 10
316.451171875
 20
-379.4716796875
 30
0.0
 10
316.5673828125
 20
-379.35546875
 30
0.0
 10
316.6826171875
 20
-379.23974609375
 30
0.0
 10
316.8291015625
 20
-379.181640625
 30
0.0
 10
317.0048828125
 20
-379.181640625
 30
0.0
 10
317.197265625
 20
-379.181640625
 30
0.0
 10
317.357421875
 20
-379.2578125
 30
0.0
 10
317.4853515625
 20
-379.40966796875
 30
0.0
 10
317.4853515625
 20
-379.40966796875
 30
0.0
 10
322.716796875
 20
-386.36962890625
 30
0.0
 10
322.716796875
 20
-386.36962890625
 30
0.0
 10
322.716796875
 20
-386.36962890625
 30
0.0
 10
322.716796875
 20
-379.8056640625
 30
0.0
 10
322.716796875
 20
-379.8056640625
 30
0.0
 10
322.716796875
 20
-379.62158203125
 30
0.0
 10
322.77734375
 20
-379.4716796875
 30
0.0
 10
322.8974609375
 20
-379.35546875
 30
0.0
 10
323.017578125
 20
-379.23974609375
 30
0.0
 10
323.1650390625
 20
-379.181640625
 30
0.0
 10
323.3408203125
 20
-379.181640625
 30
0.0
 10
323.525390625
 20
-379.181640625
 30
0.0
 10
323.6728515625
 20
-379.23974609375
 30
0.0
 10
323.78515625
 20
-379.35546875
 30
0.0
 10
323.8974609375
 20
-379.4716796875
 30
0.0
 10
323.953125
 20
-379.62158203125
 30
0.0
 10
323.953125
 20
-379.8056640625
 30
0.0
 10
323.953125
 20
-379.8056640625
 30
0.0
 10
323.953125
 20
-387.9296875
 30
0.0
 10
323.953125
 20
-387.9296875
 30
0.0
 10
323.953125
 20
-388.10595703125
 30
0.0
 10
323.8974609375
 20
-388.25390625
 30
0.0
 10
323.78515625
 20
-388.37353515625
 30
0.0
 10
323.6728515625
 20
-388.49365234375
 30
0.0
 10
323.525390625
 20
-388.5537109375
 30
0.0
 10
323.3408203125
 20
-388.5537109375
 30
0.0
 10
323.2607421875
 20
-388.5537109375
 30
0.0
 10
323.1748046875
 20
-388.53564453125
 30
0.0
 10
323.0830078125
 20
-388.49951171875
 30
0.0
 10
322.9912109375
 20
-388.4638671875
 30
0.0
 10
322.9169921875
 20
-388.40966796875
 30
0.0
 10
322.861328125
 20
-388.337890625
 30
0.0
 10
322.861328125
 20
-388.337890625
 30
0.0
 10
317.62890625
 20
-381.3779296875
 30
0.0
 10
317.62890625
 20
-381.3779296875
 30
0.0
 10
317.62890625
 20
-381.3779296875
 30
0.0
 10
317.62890625
 20
-387.9296875
 30
0.0
 10
317.62890625
 20
-387.9296875
 30
0.0
 10
317.62890625
 20
-388.10595703125
 30
0.0
 10
317.5712890625
 20
-388.25390625
 30
0.0
 10
317.455078125
 20
-388.37353515625
 30
0.0
 10
317.3388671875
 20
-388.49365234375
 30
0.0
 10
317.189453125
 20
-388.5537109375
 30
0.0
 10
317.0048828125
 20
-388.5537109375
 30
0.0
  0
HATCH
  5
96
330
81
100
AcDbEntity
  8
Layer 1
 62
   250
420
  2301728
440
 33554687
100
AcDbHatch
 10
0.0
 20
0.0
 30
0.0
210
0.0
220
0.0
230
1.0
  2
SOLID
 70
     1
 71
     1
 91
        1
 92
        1
 93
        1
 72
     4
 94
        3
 73
     0
 74
     0
 95
       68
 96
       64
 40
0.0
 40
0.0
 40
0.0
 40
0.0
 40
1.0
 40
1.0
 40
1.0
 40
2.0
 40
2.0
 40
2.0
 40
3.0
 40
3.0
 40
3.0
 40
4.0
 40
4.0
 40
4.0
 40
5.0
 40
5.0
 40
5.0
 40
6.0
 40
6.0
 40
6.0
 40
7.0
 40
7.0
 40
7.0
 40
8.0
 40
8.0
 40
8.0
 40
9.0
 40
9.0
 40
9.0
 40
10.0
 40
10.0
 40
10.0
 40
11.0
 40
11.0
 40
11.0
 40
12.0
 40
12.0
 40
12.0
 40
13.0
 40
13.0
 40
13.0
 40
14.0
 40
14.0
 40
14.0
 40
15.0
 40
15.0
 40
15.0
 40
16.0
 40
16.0
 40
16.0
 40
17.0
 40
17.0
 40
17.0
 40
18.0
 40
18.0
 40
18.0
 40
19.0
 40
19.0
 40
19.0
 40
20.0
 40
20.0
 40
20.0
 40
21.0
 40
21.0
 40
21.0
 40
21.0
 10
317.0048828125
 20
-388.5537109375
 10
316.8291015625
 20
-388.5537109375
 10
316.6826171875
 20
-388.49365234375
 10
316.5673828125
 20
-388.37353515625
 10
316.451171875
 20
-388.25390625
 10
316.3935546875
 20
-388.10595703125
 10
316.3935546875
 20
-387.9296875
 10
316.3935546875
 20
-387.9296875
 10
316.3935546875
 20
-379.8056640625
 10
316.3935546875
 20
-379.8056640625
 10
316.3935546875
 20
-379.62158203125
 10
316.451171875
 20
-379.4716796875
 10
316.5673828125
 20
-379.35546875
 10
316.6826171875
 20
-379.23974609375
 10
316.8291015625
 20
-379.181640625
 10
317.0048828125
 20
-379.181640625
 10
317.197265625
 20
-379.181640625
 10
317.357421875
 20
-379.2578125
 10
317.4853515625
 20
-379.40966796875
 10
317.4853515625
 20
-379.40966796875
 10
322.716796875
 20
-386.36962890625
 10
322.716796875
 20
-386.36962890625
 10
322.716796875
 20
-386.36962890625
 10
322.716796875
 20
-379.8056640625
 10
322.716796875
 20
-379.8056640625
 10
322.716796875
 20
-379.62158203125
 10
322.77734375
 20
-379.4716796875
 10
322.8974609375
 20
-379.35546875
 10
323.017578125
 20
-379.23974609375
 10
323.1650390625
 20
-379.181640625
 10
323.3408203125
 20
-379.181640625
 10
323.525390625
 20
-379.181640625
 10
323.6728515625
 20
-379.23974609375
 10
323.78515625
 20
-379.35546875
 10
323.8974609375
 20
-379.4716796875
 10
323.953125
 20
-379.62158203125
 10
323.953125
 20
-379.8056640625
 10
323.953125
 20
-379.8056640625
 10
323.953125
 20
-387.9296875
 10
323.953125
 20
-387.9296875
 10
323.953125
 20
-388.10595703125
 10
323.8974609375
 20
-388.25390625
 10
323.78515625
 20
-388.37353515625
 10
323.6728515625
 20
-388.49365234375
 10
323.525390625
 20
-388.5537109375
 10
323.3408203125
 20
-388.5537109375
 10
323.2607421875
 20
-388.5537109375
 10
323.1748046875
 20
-388.53564453125
 10
323.0830078125
 20
-388.49951171875
 10
322.9912109375
 20
-388.4638671875
 10
322.9169921875
 20
-388.40966796875
 10
322.861328125
 20
-388.337890625
 10
322.861328125
 20
-388.337890625
 10
317.62890625
 20
-381.3779296875
 10
317.62890625
 20
-381.3779296875
 10
317.62890625
 20
-381.3779296875
 10
317.62890625
 20
-387.9296875
 10
317.62890625
 20
-387.9296875
 10
317.62890625
 20
-388.10595703125
 10
317.5712890625
 20
-388.25390625
 10
317.455078125
 20
-388.37353515625
 10
317.3388671875
 20
-388.49365234375
 10
317.189453125
 20
-388.5537109375
 10
317.0048828125
 20
-388.5537109375
 97
        0
 97
        1
330
95
 75
     2
 76
     1
 98
        1
 10
0.0
 20
0.0
450
        0
451
        0
460
0.0
461
0.0
452
        0
462
0.0
453
        0
470

  0
SPLINE
  5
97
330
81
100
AcDbEntity
  8
Layer 1
100
AcDbSpline
210
0.0
220
0.0
230
1.0
 70
     9
 71
     3
 72
   128
 73
   124
 74
     0
 42
0.0000000001
 43
0.0000000001
 40
0.0
 40
0.0
 40
0.0
 40
0.0
 40
1.0
 40
1.0
 40
1.0
 40
2.0
 40
2.0
 40
2.0
 40
3.0
 40
3.0
 40
3.0
 40
4.0
 40
4.0
 40
4.0
 40
5.0
 40
5.0
 40
5.0
 40
6.0
 40
6.0
 40
6.0
 40
7.0
 40
7.0
 40
7.0
 40
8.0
 40
8.0
 40
8.0
 40
9.0
 40
9.0
 40
9.0
 40
10.0
 40
10.0
 40
10.0
 40
11.0
 40
11.0
 40
11.0
 40
12.0
 40
12.0
 40
12.0
 40
13.0
 40
13.0
 40
13.0
 40
14.0
 40
14.0
 40
14.0
 40
15.0
 40
15.0
 40
15.0
 40
16.0
 40
16.0
 40
16.0
 40
17.0
 40
17.0
 40
17.0
 40
18.0
 40
18.0
 40
18.0
 40
19.0
 40
19.0
 40
19.0
 40
20.0
 40
20.0
 40
20.0
 40
21.0
 40
21.0
 40
21.0
 40
22.0
 40
22.0
 40
22.0
 40
23.0
 40
23.0
 40
23.0
 40
24.0
 40
24.0
 40
24.0
 40
25.0
 40
25.0
 40
25.0
 40
26.0
 40
26.0
 40
26.0
 40
27.0
 40
27.0
 40
27.0
 40
28.0
 40
28.0
 40
28.0
 40
29.0
 40
29.0
 40
29.0
 40
30.0
 40
30.0
 40
30.0
 40
31.0
 40
31.0
 40
31.0
 40
32.0
 40
32.0
 40
32.0
 40
33.0
 40
33.0
 40
33.0
 40
34.0
 40
34.0
 40
34.0
 40
35.0
 40
35.0
 40
35.0
 40
36.0
 40
36.0
 40
36.0
 40
37.0
 40
37.0
 40
37.0
 40
38.0
 40
38.0
 40
38.0
 40
39.0
 40
39.0
 40
39.0
 40
40.0
 40
40.0
 40
40.0
 40
41.0
 40
41.0
 40
41.0
 40
41.0
 10
329.3291015625
 20
-388.673828125
 30
0.0
 10
328.8173828125
 20
-388.673828125
 30
0.0
 10
328.3291015625
 20
-388.59375
 30
0.0
 10
327.865234375
 20
-388.43359375
 30
0.0
 10
327.4013671875
 20
-388.27392578125
 30
0.0
 10
326.9970703125
 20
-388.0498046875
 30
0.0
 10
326.6533203125
 20
-387.76171875
 30
0.0
 10
326.30859375
 20
-387.4736328125
 30
0.0
 10
326.056640625
 20
-387.1416015625
 30
0.0
 10
325.8974609375
 20
-386.765625
 30
0.0
 10
325.8173828125
 20
-386.59765625
 30
0.0
 10
325.8193359375
 20
-386.44189453125
 30
0.0
 10
325.9033203125
 20
-386.2978515625
 30
0.0
 10
325.9873046875
 20
-386.15380859375
 30
0.0
 10
326.12890625
 20
-386.06201171875
 30
0.0
 10
326.3291015625
 20
-386.021484375
 30
0.0
 10
326.47265625
 20
-385.98974609375
 30
0.0
 10
326.615234375
 20
-386.01171875
 30
0.0
 10
326.7548828125
 20
-386.087890625
 30
0.0
 10
326.89453125
 20
-386.1640625
 30
0.0
 10
327.0009765625
 20
-386.27783203125
 30
0.0
 10
327.0732421875
 20
-386.4296875
 30
0.0
 10
327.1689453125
 20
-386.6298828125
 30
0.0
 10
327.3271484375
 20
-386.8134765625
 30
0.0
 10
327.546875
 20
-386.98193359375
 30
0.0
 10
327.7666015625
 20
-387.14990234375
 30
0.0
 10
328.033203125
 20
-387.28564453125
 30
0.0
 10
328.3447265625
 20
-387.3896484375
 30
0.0
 10
328.6572265625
 20
-387.49365234375
 30
0.0
 10
328.9853515625
 20
-387.5458984375
 30
0.0
 10
329.3291015625
 20
-387.5458984375
 30
0.0
 10
329.712890625
 20
-387.5458984375
 30
0.0
 10
330.0673828125
 20
-387.48583984375
 30
0.0
 10
330.390625
 20
-387.36572265625
 30
0.0
 10
330.71484375
 20
-387.24560546875
 30
0.0
 10
330.9765625
 20
-387.07177734375
 30
0.0
 10
331.1767578125
 20
-386.84375
 30
0.0
 10
331.376953125
 20
-386.61572265625
 30
0.0
 10
331.4775390625
 20
-386.33349609375
 30
0.0
 10
331.4775390625
 20
-385.99755859375
 30
0.0
 10
331.4775390625
 20
-385.57373046875
 30
0.0
 10
331.310546875
 20
-385.19384765625
 30
0.0
 10
330.9794921875
 20
-384.85791015625
 30
0.0
 10
330.6474609375
 20
-384.521484375
 30
0.0
 10
330.1005859375
 20
-384.31396484375
 30
0.0
 10
329.3408203125
 20
-384.23388671875
 30
0.0
 10
328.3486328125
 20
-384.1376953125
 30
0.0
 10
327.5693359375
 20
-383.845703125
 30
0.0
 10
327.0009765625
 20
-383.35791015625
 30
0.0
 10
326.4326171875
 20
-382.86962890625
 30
0.0
 10
326.1494140625
 20
-382.265625
 30
0.0
 10
326.1494140625
 20
-381.5458984375
 30
0.0
 10
326.1494140625
 20
-381.017578125
 30
0.0
 10
326.296875
 20
-380.56982421875
 30
0.0
 10
326.5927734375
 20
-380.20166015625
 30
0.0
 10
326.888671875
 20
-379.833984375
 30
0.0
 10
327.291015625
 20
-379.5537109375
 30
0.0
 10
327.798828125
 20
-379.36181640625
 30
0.0
 10
328.306640625
 20
-379.169921875
 30
0.0
 10
328.873046875
 20
-379.07373046875
 30
0.0
 10
329.4970703125
 20
-379.07373046875
 30
0.0
 10
329.9853515625
 20
-379.07373046875
 30
0.0
 10
330.4111328125
 20
-379.1416015625
 30
0.0
 10
330.775390625
 20
-379.27783203125
 30
0.0
 10
331.138671875
 20
-379.4140625
 30
0.0
 10
331.45703125
 20
-379.6015625
 30
0.0
 10
331.7294921875
 20
-379.841796875
 30
0.0
 10
332.0009765625
 20
-380.08154296875
 30
0.0
 10
332.2373046875
 20
-380.36572265625
 30
0.0
 10
332.4375
 20
-380.69384765625
 30
0.0
 10
332.548828125
 20
-380.86962890625
 30
0.0
 10
332.5947265625
 20
-381.03564453125
 30
0.0
 10
332.5751953125
 20
-381.19189453125
 30
0.0
 10
332.5546875
 20
-381.34765625
 30
0.0
 10
332.4765625
 20
-381.4697265625
 30
0.0
 10
332.3408203125
 20
-381.5576171875
 30
0.0
 10
332.189453125
 20
-381.65380859375
 30
0.0
 10
332.025390625
 20
-381.673828125
 30
0.0
 10
331.8486328125
 20
-381.61767578125
 30
0.0
 10
331.6728515625
 20
-381.56201171875
 30
0.0
 10
331.541015625
 20
-381.4580078125
 30
0.0
 10
331.453125
 20
-381.3056640625
 30
0.0
 10
331.3251953125
 20
-381.07373046875
 30
0.0
 10
331.1689453125
 20
-380.8779296875
 30
0.0
 10
330.9853515625
 20
-380.7177734375
 30
0.0
 10
330.80078125
 20
-380.5576171875
 30
0.0
 10
330.5849609375
 20
-380.431640625
 30
0.0
 10
330.3369140625
 20
-380.33984375
 30
0.0
 10
330.0888671875
 20
-380.248046875
 30
0.0
 10
329.796875
 20
-380.20166015625
 30
0.0
 10
329.4609375
 20
-380.20166015625
 30
0.0
 10
328.869140625
 20
-380.19384765625
 30
0.0
 10
328.373046875
 20
-380.3037109375
 30
0.0
 10
327.97265625
 20
-380.53173828125
 30
0.0
 10
327.5732421875
 20
-380.759765625
 30
0.0
 10
327.373046875
 20
-381.10986328125
 30
0.0
 10
327.373046875
 20
-381.58154296875
 30
0.0
 10
327.373046875
 20
-381.82177734375
 30
0.0
 10
327.4345703125
 20
-382.0517578125
 30
0.0
 10
327.55859375
 20
-382.271484375
 30
0.0
 10
327.6826171875
 20
-382.49169921875
 30
0.0
 10
327.9111328125
 20
-382.681640625
 30
0.0
 10
328.2431640625
 20
-382.841796875
 30
0.0
 10
328.5751953125
 20
-383.001953125
 30
0.0
 10
329.052734375
 20
-383.11376953125
 30
0.0
 10
329.6767578125
 20
-383.177734375
 30
0.0
 10
330.62890625
 20
-383.27392578125
 30
0.0
 10
331.37109375
 20
-383.56396484375
 30
0.0
 10
331.9033203125
 20
-384.0478515625
 30
0.0
 10
332.4345703125
 20
-384.53173828125
 30
0.0
 10
332.701171875
 20
-385.169921875
 30
0.0
 10
332.701171875
 20
-385.9619140625
 30
0.0
 10
332.701171875
 20
-386.41748046875
 30
0.0
 10
332.607421875
 20
-386.8134765625
 30
0.0
 10
332.4189453125
 20
-387.14990234375
 30
0.0
 10
332.2314453125
 20
-387.48583984375
 30
0.0
 10
331.9794921875
 20
-387.767578125
 30
0.0
 10
331.6630859375
 20
-387.99560546875
 30
0.0
 10
331.3466796875
 20
-388.2236328125
 30
0.0
 10
330.9873046875
 20
-388.3935546875
 30
0.0
 10
330.5830078125
 20
-388.505859375
 30
0.0
 10
330.1787109375
 20
-388.61767578125
 30
0.0
 10
329.7607421875
 20
-388.673828125
 30
0.0
 10
329.3291015625
 20
-388.673828125
 30
0.0
  0
HATCH
  5
98
330
81
100
AcDbEntity
  8
Layer 1
 62
   250
420
  2301728
440
 33554687
100
AcDbHatch
 10
0.0
 20
0.0
 30
0.0
210
0.0
220
0.0
230
1.0
  2
SOLID
 70
     1
 71
     1
 91
        1
 92
        1
 93
        1
 72
     4
 94
        3
 73
     0
 74
     0
 95
      128
 96
      124
 40
0.0
 40
0.0
 40
0.0
 40
0.0
 40
1.0
 40
1.0
 40
1.0
 40
2.0
 40
2.0
 40
2.0
 40
3.0
 40
3.0
 40
3.0
 40
4.0
 40
4.0
 40
4.0
 40
5.0
 40
5.0
 40
5.0
 40
6.0
 40
6.0
 40
6.0
 40
7.0
 40
7.0
 40
7.0
 40
8.0
 40
8.0
 40
8.0
 40
9.0
 40
9.0
 40
9.0
 40
10.0
 40
10.0
 40
10.0
 40
11.0
 40
11.0
 40
11.0
 40
12.0
 40
12.0
 40
12.0
 40
13.0
 40
13.0
 40
13.0
 40
14.0
 40
14.0
 40
14.0
 40
15.0
 40
15.0
 40
15.0
 40
16.0
 40
16.0
 40
16.0
 40
17.0
 40
17.0
 40
17.0
 40
18.0
 40
18.0
 40
18.0
 40
19.0
 40
19.0
 40
19.0
 40
20.0
 40
20.0
 40
20.0
 40
21.0
 40
21.0
 40
21.0
 40
22.0
 40
22.0
 40
22.0
 40
23.0
 40
23.0
 40
23.0
 40
24.0
 40
24.0
 40
24.0
 40
25.0
 40
25.0
 40
25.0
 40
26.0
 40
26.0
 40
26.0
 40
27.0
 40
27.0
 40
27.0
 40
28.0
 40
28.0
 40
28.0
 40
29.0
 40
29.0
 40
29.0
 40
30.0
 40
30.0
 40
30.0
 40
31.0
 40
31.0
 40
31.0
 40
32.0
 40
32.0
 40
32.0
 40
33.0
 40
33.0
 40
33.0
 40
34.0
 40
34.0
 40
34.0
 40
35.0
 40
35.0
 40
35.0
 40
36.0
 40
36.0
 40
36.0
 40
37.0
 40
37.0
 40
37.0
 40
38.0
 40
38.0
 40
38.0
 40
39.0
 40
39.0
 40
39.0
 40
40.0
 40
40.0
 40
40.0
 40
41.0
 40
41.0
 40
41.0
 40
41.0
 10
329.3291015625
 20
-388.673828125
 10
328.8173828125
 20
-388.673828125
 10
328.3291015625
 20
-388.59375
 10
327.865234375
 20
-388.43359375
 10
327.4013671875
 20
-388.27392578125
 10
326.9970703125
 20
-388.0498046875
 10
326.6533203125
 20
-387.76171875
 10
326.30859375
 20
-387.4736328125
 10
326.056640625
 20
-387.1416015625
 10
325.8974609375
 20
-386.765625
 10
325.8173828125
 20
-386.59765625
 10
325.8193359375
 20
-386.44189453125
 10
325.9033203125
 20
-386.2978515625
 10
325.9873046875
 20
-386.15380859375
 10
326.12890625
 20
-386.06201171875
 10
326.3291015625
 20
-386.021484375
 10
326.47265625
 20
-385.98974609375
 10
326.615234375
 20
-386.01171875
 10
326.7548828125
 20
-386.087890625
 10
326.89453125
 20
-386.1640625
 10
327.0009765625
 20
-386.27783203125
 10
327.0732421875
 20
-386.4296875
 10
327.1689453125
 20
-386.6298828125
 10
327.3271484375
 20
-386.8134765625
 10
327.546875
 20
-386.98193359375
 10
327.7666015625
 20
-387.14990234375
 10
328.033203125
 20
-387.28564453125
 10
328.3447265625
 20
-387.3896484375
 10
328.6572265625
 20
-387.49365234375
 10
328.9853515625
 20
-387.5458984375
 10
329.3291015625
 20
-387.5458984375
 10
329.712890625
 20
-387.5458984375
 10
330.0673828125
 20
-387.48583984375
 10
330.390625
 20
-387.36572265625
 10
330.71484375
 20
-387.24560546875
 10
330.9765625
 20
-387.07177734375
 10
331.1767578125
 20
-386.84375
 10
331.376953125
 20
-386.61572265625
 10
331.4775390625
 20
-386.33349609375
 10
331.4775390625
 20
-385.99755859375
 10
331.4775390625
 20
-385.57373046875
 10
331.310546875
 20
-385.19384765625
 10
330.9794921875
 20
-384.85791015625
 10
330.6474609375
 20
-384.521484375
 10
330.1005859375
 20
-384.31396484375
 10
329.3408203125
 20
-384.23388671875
 10
328.3486328125
 20
-384.1376953125
 10
327.5693359375
 20
-383.845703125
 10
327.0009765625
 20
-383.35791015625
 10
326.4326171875
 20
-382.86962890625
 10
326.1494140625
 20
-382.265625
 10
326.1494140625
 20
-381.5458984375
 10
326.1494140625
 20
-381.017578125
 10
326.296875
 20
-380.56982421875
 10
326.5927734375
 20
-380.20166015625
 10
326.888671875
 20
-379.833984375
 10
327.291015625
 20
-379.5537109375
 10
327.798828125
 20
-379.36181640625
 10
328.306640625
 20
-379.169921875
 10
328.873046875
 20
-379.07373046875
 10
329.4970703125
 20
-379.07373046875
 10
329.9853515625
 20
-379.07373046875
 10
330.4111328125
 20
-379.1416015625
 10
330.775390625
 20
-379.27783203125
 10
331.138671875
 20
-379.4140625
 10
331.45703125
 20
-379.6015625
 10
331.7294921875
 20
-379.841796875
 10
332.0009765625
 20
-380.08154296875
 10
332.2373046875
 20
-380.36572265625
 10
332.4375
 20
-380.69384765625
 10
332.548828125
 20
-380.86962890625
 10
332.5947265625
 20
-381.03564453125
 10
332.5751953125
 20
-381.19189453125
 10
332.5546875
 20
-381.34765625
 10
332.4765625
 20
-381.4697265625
 10
332.3408203125
 20
-381.5576171875
 10
332.189453125
 20
-381.65380859375
 10
332.025390625
 20
-381.673828125
 10
331.8486328125
 20
-381.61767578125
 10
331.6728515625
 20
-381.56201171875
 10
331.541015625
 20
-381.4580078125
 10
331.453125
 20
-381.3056640625
 10
331.3251953125
 20
-381.07373046875
 10
331.1689453125
 20
-380.8779296875
 10
330.9853515625
 20
-380.7177734375
 10
330.80078125
 20
-380.5576171875
 10
330.5849609375
 20
-380.431640625
 10
330.3369140625
 20
-380.33984375
 10
330.0888671875
 20
-380.248046875
 10
329.796875
 20
-380.20166015625
 10
329.4609375
 20
-380.20166015625
 10
328.869140625
 20
-380.19384765625
 10
328.373046875
 20
-380.3037109375
 10
327.97265625
 20
-380.53173828125
 10
327.5732421875
 20
-380.759765625
 10
327.373046875
 20
-381.10986328125
 10
327.373046875
 20
-381.58154296875
 10
327.373046875
 20
-381.82177734375
 10
327.4345703125
 20
-382.0517578125
 10
327.55859375
 20
-382.271484375
 10
327.6826171875
 20
-382.49169921875
 10
327.9111328125
 20
-382.681640625
 10
328.2431640625
 20
-382.841796875
 10
328.5751953125
 20
-383.001953125
 10
329.052734375
 20
-383.11376953125
 10
329.6767578125
 20
-383.177734375
 10
330.62890625
 20
-383.27392578125
 10
331.37109375
 20
-383.56396484375
 10
331.9033203125
 20
-384.0478515625
 10
332.4345703125
 20
-384.53173828125
 10
332.701171875
 20
-385.169921875
 10
332.701171875
 20
-385.9619140625
 10
332.701171875
 20
-386.41748046875
 10
332.607421875
 20
-386.8134765625
 10
332.4189453125
 20
-387.14990234375
 10
332.2314453125
 20
-387.48583984375
 10
331.9794921875
 20
-387.767578125
 10
331.6630859375
 20
-387.99560546875
 10
331.3466796875
 20
-388.2236328125
 10
330.9873046875
 20
-388.3935546875
 10
330.5830078125
 20
-388.505859375
 10
330.1787109375
 20
-388.61767578125
 10
329.7607421875
 20
-388.673828125
 10
329.3291015625
 20
-388.673828125
 97
        0
 97
        1
330
97
 75
     2
 76
     1
 98
        1
 10
0.0
 20
0.0
450
        0
451
        0
460
0.0
461
0.0
452
        0
462
0.0
453
        0
470

  0
SPLINE
  5
99
330
81
100
AcDbEntity
  8
Layer 1
100
AcDbSpline
210
0.0
220
0.0
230
1.0
 70
    11
 71
     3
 72
    17
 73
    13
 74
     0
 42
0.0000000001
 43
0.0000000001
 40
0.0
 40
0.0
 40
0.0
 40
0.0
 40
1.0
 40
1.0
 40
1.0
 40
2.0
 40
2.0
 40
2.0
 40
3.0
 40
3.0
 40
3.0
 40
4.0
 40
4.0
 40
4.0
 40
4.0
 10
334.873046875
 20
-386.48974609375
 30
0.0
 10
334.873046875
 20
-386.48974609375
 30
0.0
 10
335.3525390625
 20
-385.45751953125
 30
0.0
 10
335.3525390625
 20
-385.45751953125
 30
0.0
 10
335.3525390625
 20
-385.45751953125
 30
0.0
 10
340.056640625
 20
-385.45751953125
 30
0.0
 10
340.056640625
 20
-385.45751953125
 30
0.0
 10
340.056640625
 20
-385.45751953125
 30
0.0
 10
340.537109375
 20
-386.48974609375
 30
0.0
 10
340.537109375
 20
-386.48974609375
 30
0.0
 10
340.537109375
 20
-386.48974609375
 30
0.0
 10
334.873046875
 20
-386.48974609375
 30
0.0
 10
334.873046875
 20
-386.48974609375
 30
0.0
  0
SPLINE
  5
9A
330
81
100
AcDbEntity
  8
Layer 1
100
AcDbSpline
210
0.0
220
0.0
230
1.0
 70
     9
 71
     3
 72
    50
 73
    46
 74
     0
 42
0.0000000001
 43
0.0000000001
 40
0.0
 40
0.0
 40
0.0
 40
0.0
 40
1.0
 40
1.0
 40
1.0
 40
2.0
 40
2.0
 40
2.0
 40
3.0
 40
3.0
 40
3.0
 40
4.0
 40
4.0
 40
4.0
 40
5.0
 40
5.0
 40
5.0
 40
6.0
 40
6.0
 40
6.0
 40
7.0
 40
7.0
 40
7.0
 40
8.0
 40
8.0
 40
8.0
 40
9.0
 40
9.0
 40
9.0
 40
10.0
 40
10.0
 40
10.0
 40
11.0
 40
11.0
 40
11.0
 40
12.0
 40
12.0
 40
12.0
 40
13.0
 40
13.0
 40
13.0
 40
14.0
 40
14.0
 40
14.0
 40
15.0
 40
15.0
 40
15.0
 40
15.0
 10
334.2373046875
 20
-388.5537109375
 30
0.0
 10
334.0126953125
 20
-388.5537109375
 30
0.0
 10
333.8408203125
 20
-388.45751953125
 30
0.0
 10
333.720703125
 20
-388.265625
 30
0.0
 10
333.6005859375
 20
-388.07373046875
 30
0.0
 10
333.5888671875
 20
-387.86962890625
 30
0.0
 10
333.6845703125
 20
-387.65380859375
 30
0.0
 10
333.6845703125
 20
-387.65380859375
 30
0.0
 10
337.056640625
 20
-379.6015625
 30
0.0
 10
337.056640625
 20
-379.6015625
 30
0.0
 10
337.1767578125
 20
-379.32177734375
 30
0.0
 10
337.373046875
 20
-379.181640625
 30
0.0
 10
337.64453125
 20
-379.181640625
 30
0.0
 10
337.9326171875
 20
-379.181640625
 30
0.0
 10
338.12890625
 20
-379.32177734375
 30
0.0
 10
338.2333984375
 20
-379.6015625
 30
0.0
 10
338.2333984375
 20
-379.6015625
 30
0.0
 10
341.6171875
 20
-387.677734375
 30
0.0
 10
341.6171875
 20
-387.677734375
 30
0.0
 10
341.705078125
 20
-387.90185546875
 30
0.0
 10
341.6904296875
 20
-388.103515625
 30
0.0
 10
341.5751953125
 20
-388.28369140625
 30
0.0
 10
341.458984375
 20
-388.4638671875
 30
0.0
 10
341.28515625
 20
-388.5537109375
 30
0.0
 10
341.052734375
 20
-388.5537109375
 30
0.0
 10
340.9326171875
 20
-388.5537109375
 30
0.0
 10
340.8193359375
 20
-388.51953125
 30
0.0
 10
340.7109375
 20
-388.45166015625
 30
0.0
 10
340.6025390625
 20
-388.3837890625
 30
0.0
 10
340.525390625
 20
-388.28955078125
 30
0.0
 10
340.4765625
 20
-388.169921875
 30
0.0
 10
340.4765625
 20
-388.169921875
 30
0.0
 10
337.5009765625
 20
-380.77783203125
 30
0.0
 10
337.5009765625
 20
-380.77783203125
 30
0.0
 10
337.5009765625
 20
-380.77783203125
 30
0.0
 10
337.8369140625
 20
-380.77783203125
 30
0.0
 10
337.8369140625
 20
-380.77783203125
 30
0.0
 10
337.8369140625
 20
-380.77783203125
 30
0.0
 10
334.8125
 20
-388.169921875
 30
0.0
 10
334.8125
 20
-388.169921875
 30
0.0
 10
334.7568359375
 20
-388.2978515625
 30
0.0
 10
334.6748046875
 20
-388.3935546875
 30
0.0
 10
334.5673828125
 20
-388.45751953125
 30
0.0
 10
334.458984375
 20
-388.52197265625
 30
0.0
 10
334.3486328125
 20
-388.5537109375
 30
0.0
 10
334.2373046875
 20
-388.5537109375
 30
0.0
  0
HATCH
  5
9B
330
81
100
AcDbEntity
  8
Layer 1
 62
   250
420
  2301728
440
 33554687
100
AcDbHatch
 10
0.0
 20
0.0
 30
0.0
210
0.0
220
0.0
230
1.0
  2
SOLID
 70
     1
 71
     1
 91
        2
 92
        1
 93
        1
 72
     4
 94
        3
 73
     0
 74
     0
 95
       17
 96
       13
 40
0.0
 40
0.0
 40
0.0
 40
0.0
 40
1.0
 40
1.0
 40
1.0
 40
2.0
 40
2.0
 40
2.0
 40
3.0
 40
3.0
 40
3.0
 40
4.0
 40
4.0
 40
4.0
 40
4.0
 10
334.873046875
 20
-386.48974609375
 10
334.873046875
 20
-386.48974609375
 10
335.3525390625
 20
-385.45751953125
 10
335.3525390625
 20
-385.45751953125
 10
335.3525390625
 20
-385.45751953125
 10
340.056640625
 20
-385.45751953125
 10
340.056640625
 20
-385.45751953125
 10
340.056640625
 20
-385.45751953125
 10
340.537109375
 20
-386.48974609375
 10
340.537109375
 20
-386.48974609375
 10
340.537109375
 20
-386.48974609375
 10
334.873046875
 20
-386.48974609375
 10
334.873046875
 20
-386.48974609375
 97
        0
 97
        1
330
99
 92
        1
 93
        1
 72
     4
 94
        3
 73
     0
 74
     0
 95
       50
 96
       46
 40
0.0
 40
0.0
 40
0.0
 40
0.0
 40
1.0
 40
1.0
 40
1.0
 40
2.0
 40
2.0
 40
2.0
 40
3.0
 40
3.0
 40
3.0
 40
4.0
 40
4.0
 40
4.0
 40
5.0
 40
5.0
 40
5.0
 40
6.0
 40
6.0
 40
6.0
 40
7.0
 40
7.0
 40
7.0
 40
8.0
 40
8.0
 40
8.0
 40
9.0
 40
9.0
 40
9.0
 40
10.0
 40
10.0
 40
10.0
 40
11.0
 40
11.0
 40
11.0
 40
12.0
 40
12.0
 40
12.0
 40
13.0
 40
13.0
 40
13.0
 40
14.0
 40
14.0
 40
14.0
 40
15.0
 40
15.0
 40
15.0
 40
15.0
 10
334.2373046875
 20
-388.5537109375
 10
334.0126953125
 20
-388.5537109375
 10
333.8408203125
 20
-388.45751953125
 10
333.720703125
 20
-388.265625
 10
333.6005859375
 20
-388.07373046875
 10
333.5888671875
 20
-387.86962890625
 10
333.6845703125
 20
-387.65380859375
 10
333.6845703125
 20
-387.65380859375
 10
337.056640625
 20
-379.6015625
 10
337.056640625
 20
-379.6015625
 10
337.1767578125
 20
-379.32177734375
 10
337.373046875
 20
-379.181640625
 10
337.64453125
 20
-379.181640625
 10
337.9326171875
 20
-379.181640625
 10
338.12890625
 20
-379.32177734375
 10
338.2333984375
 20
-379.6015625
 10
338.2333984375
 20
-379.6015625
 10
341.6171875
 20
-387.677734375
 10
341.6171875
 20
-387.677734375
 10
341.705078125
 20
-387.90185546875
 10
341.6904296875
 20
-388.103515625
 10
341.5751953125
 20
-388.28369140625
 10
341.458984375
 20
-388.4638671875
 10
341.28515625
 20
-388.5537109375
 10
341.052734375
 20
-388.5537109375
 10
340.9326171875
 20
-388.5537109375
 10
340.8193359375
 20
-388.51953125
 10
340.7109375
 20
-388.45166015625
 10
340.6025390625
 20
-388.3837890625
 10
340.525390625
 20
-388.28955078125
 10
340.4765625
 20
-388.169921875
 10
340.4765625
 20
-388.169921875
 10
337.5009765625
 20
-380.77783203125
 10
337.5009765625
 20
-380.77783203125
 10
337.5009765625
 20
-380.77783203125
 10
337.8369140625
 20
-380.77783203125
 10
337.8369140625
 20
-380.77783203125
 10
337.8369140625
 20
-380.77783203125
 10
334.8125
 20
-388.169921875
 10
334.8125
 20
-388.169921875
 10
334.7568359375
 20
-388.2978515625
 10
334.6748046875
 20
-388.3935546875
 10
334.5673828125
 20
-388.45751953125
 10
334.458984375
 20
-388.52197265625
 10
334.3486328125
 20
-388.5537109375
 10
334.2373046875
 20
-388.5537109375
 97
        0
 97
        1
330
9A
 75
     2
 76
     1
 98
        1
 10
0.0
 20
0.0
450
        0
451
        0
460
0.0
461
0.0
452
        0
462
0.0
453
        0
470

  0
SPLINE
  5
9C
330
81
100
AcDbEntity
  8
Layer 1
100
AcDbSpline
210
0.0
220
0.0
230
1.0
 70
    11
 71
     3
 72
    32
 73
    28
 74
     0
 42
0.0000000001
 43
0.0000000001
 40
0.0
 40
0.0
 40
0.0
 40
0.0
 40
1.0
 40
1.0
 40
1.0
 40
2.0
 40
2.0
 40
2.0
 40
3.0
 40
3.0
 40
3.0
 40
4.0
 40
4.0
 40
4.0
 40
5.0
 40
5.0
 40
5.0
 40
6.0
 40
6.0
 40
6.0
 40
7.0
 40
7.0
 40
7.0
 40
8.0
 40
8.0
 40
8.0
 40
9.0
 40
9.0
 40
9.0
 40
9.0
 10
344.29296875
 20
-387.40185546875
 30
0.0
 10
344.29296875
 20
-387.40185546875
 30
0.0
 10
346.7890625
 20
-387.40185546875
 30
0.0
 10
346.7890625
 20
-387.40185546875
 30
0.0
 10
347.1572265625
 20
-387.40185546875
 30
0.0
 10
347.48046875
 20
-387.337890625
 30
0.0
 10
347.7607421875
 20
-387.20947265625
 30
0.0
 10
348.041015625
 20
-387.08203125
 30
0.0
 10
348.2607421875
 20
-386.8935546875
 30
0.0
 10
348.4208984375
 20
-386.6455078125
 30
0.0
 10
348.5810546875
 20
-386.39794921875
 30
0.0
 10
348.6611328125
 20
-386.08984375
 30
0.0
 10
348.6611328125
 20
-385.7216796875
 30
0.0
 10
348.6611328125
 20
-385.3779296875
 30
0.0
 10
348.5810546875
 20
-385.09375
 30
0.0
 10
348.4208984375
 20
-384.86962890625
 30
0.0
 10
348.2607421875
 20
-384.64599609375
 30
0.0
 10
348.041015625
 20
-384.4755859375
 30
0.0
 10
347.7607421875
 20
-384.35986328125
 30
0.0
 10
347.48046875
 20
-384.24365234375
 30
0.0
 10
347.1572265625
 20
-384.185546875
 30
0.0
 10
346.7890625
 20
-384.185546875
 30
0.0
 10
346.7890625
 20
-384.185546875
 30
0.0
 10
344.29296875
 20
-384.185546875
 30
0.0
 10
344.29296875
 20
-384.185546875
 30
0.0
 10
344.29296875
 20
-384.185546875
 30
0.0
 10
344.29296875
 20
-387.40185546875
 30
0.0
 10
344.29296875
 20
-387.40185546875
 30
0.0
  0
SPLINE
  5
9D
330
81
100
AcDbEntity
  8
Layer 1
100
AcDbSpline
210
0.0
220
0.0
230
1.0
 70
    11
 71
     3
 72
    26
 73
    22
 74
     0
 42
0.0000000001
 43
0.0000000001
 40
0.0
 40
0.0
 40
0.0
 40
0.0
 40
1.0
 40
1.0
 40
1.0
 40
2.0
 40
2.0
 40
2.0
 40
3.0
 40
3.0
 40
3.0
 40
4.0
 40
4.0
 40
4.0
 40
5.0
 40
5.0
 40
5.0
 40
6.0
 40
6.0
 40
6.0
 40
7.0
 40
7.0
 40
7.0
 40
7.0
 10
344.29296875
 20
-383.03369140625
 30
0.0
 10
344.29296875
 20
-383.03369140625
 30
0.0
 10
346.537109375
 20
-383.03369140625
 30
0.0
 10
346.537109375
 20
-383.03369140625
 30
0.0
 10
346.9931640625
 20
-383.03369140625
 30
0.0
 10
347.3671875
 20
-382.921875
 30
0.0
 10
347.6591796875
 20
-382.69775390625
 30
0.0
 10
347.951171875
 20
-382.4736328125
 30
0.0
 10
348.0966796875
 20
-382.1337890625
 30
0.0
 10
348.0966796875
 20
-381.677734375
 30
0.0
 10
348.0966796875
 20
-381.2216796875
 30
0.0
 10
347.951171875
 20
-380.8837890625
 30
0.0
 10
347.6591796875
 20
-380.66357421875
 30
0.0
 10
347.3671875
 20
-380.44384765625
 30
0.0
 10
346.9931640625
 20
-380.33349609375
 30
0.0
 10
346.537109375
 20
-380.33349609375
 30
0.0
 10
346.537109375
 20
-380.33349609375
 30
0.0
 10
344.29296875
 20
-380.33349609375
 30
0.0
 10
344.29296875
 20
-380.33349609375
 30
0.0
 10
344.29296875
 20
-380.33349609375
 30
0.0
 10
344.29296875
 20
-383.03369140625
 30
0.0
 10
344.29296875
 20
-383.03369140625
 30
0.0
  0
SPLINE
  5
9E
330
81
100
AcDbEntity
  8
Layer 1
100
AcDbSpline
210
0.0
220
0.0
230
1.0
 70
     9
 71
     3
 72
    56
 73
    52
 74
     0
 42
0.0000000001
 43
0.0000000001
 40
0.0
 40
0.0
 40
0.0
 40
0.0
 40
1.0
 40
1.0
 40
1.0
 40
2.0
 40
2.0
 40
2.0
 40
3.0
 40
3.0
 40
3.0
 40
4.0
 40
4.0
 40
4.0
 40
5.0
 40
5.0
 40
5.0
 40
6.0
 40
6.0
 40
6.0
 40
7.0
 40
7.0
 40
7.0
 40
8.0
 40
8.0
 40
8.0
 40
9.0
 40
9.0
 40
9.0
 40
10.0
 40
10.0
 40
10.0
 40
11.0
 40
11.0
 40
11.0
 40
12.0
 40
12.0
 40
12.0
 40
13.0
 40
13.0
 40
13.0
 40
14.0
 40
14.0
 40
14.0
 40
15.0
 40
15.0
 40
15.0
 40
16.0
 40
16.0
 40
16.0
 40
17.0
 40
17.0
 40
17.0
 40
17.0
 10
343.6689453125
 20
-388.5537109375
 30
0.0
 10
343.4931640625
 20
-388.5537109375
 30
0.0
 10
343.3447265625
 20
-388.49365234375
 30
0.0
 10
343.224609375
 20
-388.37353515625
 30
0.0
 10
343.1044921875
 20
-388.25390625
 30
0.0
 10
343.044921875
 20
-388.10595703125
 30
0.0
 10
343.044921875
 20
-387.9296875
 30
0.0
 10
343.044921875
 20
-387.9296875
 30
0.0
 10
343.044921875
 20
-379.8056640625
 30
0.0
 10
343.044921875
 20
-379.8056640625
 30
0.0
 10
343.044921875
 20
-379.62158203125
 30
0.0
 10
343.1044921875
 20
-379.4716796875
 30
0.0
 10
343.224609375
 20
-379.35546875
 30
0.0
 10
343.3447265625
 20
-379.23974609375
 30
0.0
 10
343.4931640625
 20
-379.181640625
 30
0.0
 10
343.6689453125
 20
-379.181640625
 30
0.0
 10
343.6689453125
 20
-379.181640625
 30
0.0
 10
346.537109375
 20
-379.181640625
 30
0.0
 10
346.537109375
 20
-379.181640625
 30
0.0
 10
347.0810546875
 20
-379.181640625
 30
0.0
 10
347.55859375
 20
-379.28759765625
 30
0.0
 10
347.970703125
 20
-379.49951171875
 30
0.0
 10
348.3828125
 20
-379.7119140625
 30
0.0
 10
348.70703125
 20
-380.005859375
 30
0.0
 10
348.943359375
 20
-380.3818359375
 30
0.0
 10
349.1787109375
 20
-380.7578125
 30
0.0
 10
349.296875
 20
-381.18994140625
 30
0.0
 10
349.296875
 20
-381.677734375
 30
0.0
 10
349.296875
 20
-382.06982421875
 30
0.0
 10
349.1904296875
 20
-382.423828125
 30
0.0
 10
348.978515625
 20
-382.73974609375
 30
0.0
 10
348.7666015625
 20
-383.0556640625
 30
0.0
 10
348.4765625
 20
-383.3056640625
 30
0.0
 10
348.109375
 20
-383.48974609375
 30
0.0
 10
348.63671875
 20
-383.61767578125
 30
0.0
 10
349.060546875
 20
-383.86962890625
 30
0.0
 10
349.380859375
 20
-384.24560546875
 30
0.0
 10
349.701171875
 20
-384.6220703125
 30
0.0
 10
349.861328125
 20
-385.11376953125
 30
0.0
 10
349.861328125
 20
-385.7216796875
 30
0.0
 10
349.861328125
 20
-386.27392578125
 30
0.0
 10
349.73046875
 20
-386.76171875
 30
0.0
 10
349.470703125
 20
-387.185546875
 30
0.0
 10
349.2109375
 20
-387.60986328125
 30
0.0
 10
348.8486328125
 20
-387.94384765625
 30
0.0
 10
348.384765625
 20
-388.1875
 30
0.0
 10
347.9208984375
 20
-388.431640625
 30
0.0
 10
347.388671875
 20
-388.5537109375
 30
0.0
 10
346.7890625
 20
-388.5537109375
 30
0.0
 10
346.7890625
 20
-388.5537109375
 30
0.0
 10
343.6689453125
 20
-388.5537109375
 30
0.0
 10
343.6689453125
 20
-388.5537109375
 30
0.0
  0
HATCH
  5
9F
330
81
100
AcDbEntity
  8
Layer 1
 62
   250
420
  2301728
440
 33554687
100
AcDbHatch
 10
0.0
 20
0.0
 30
0.0
210
0.0
220
0.0
230
1.0
  2
SOLID
 70
     1
 71
     1
 91
        3
 92
        1
 93
        1
 72
     4
 94
        3
 73
     0
 74
     0
 95
       32
 96
       28
 40
0.0
 40
0.0
 40
0.0
 40
0.0
 40
1.0
 40
1.0
 40
1.0
 40
2.0
 40
2.0
 40
2.0
 40
3.0
 40
3.0
 40
3.0
 40
4.0
 40
4.0
 40
4.0
 40
5.0
 40
5.0
 40
5.0
 40
6.0
 40
6.0
 40
6.0
 40
7.0
 40
7.0
 40
7.0
 40
8.0
 40
8.0
 40
8.0
 40
9.0
 40
9.0
 40
9.0
 40
9.0
 10
344.29296875
 20
-387.40185546875
 10
344.29296875
 20
-387.40185546875
 10
346.7890625
 20
-387.40185546875
 10
346.7890625
 20
-387.40185546875
 10
347.1572265625
 20
-387.40185546875
 10
347.48046875
 20
-387.337890625
 10
347.7607421875
 20
-387.20947265625
 10
348.041015625
 20
-387.08203125
 10
348.2607421875
 20
-386.8935546875
 10
348.4208984375
 20
-386.6455078125
 10
348.5810546875
 20
-386.39794921875
 10
348.6611328125
 20
-386.08984375
 10
348.6611328125
 20
-385.7216796875
 10
348.6611328125
 20
-385.3779296875
 10
348.5810546875
 20
-385.09375
 10
348.4208984375
 20
-384.86962890625
 10
348.2607421875
 20
-384.64599609375
 10
348.041015625
 20
-384.4755859375
 10
347.7607421875
 20
-384.35986328125
 10
347.48046875
 20
-384.24365234375
 10
347.1572265625
 20
-384.185546875
 10
346.7890625
 20
-384.185546875
 10
346.7890625
 20
-384.185546875
 10
344.29296875
 20
-384.185546875
 10
344.29296875
 20
-384.185546875
 10
344.29296875
 20
-384.185546875
 10
344.29296875
 20
-387.40185546875
 10
344.29296875
 20
-387.40185546875
 97
        0
 97
        1
330
9C
 92
        1
 93
        1
 72
     4
 94
        3
 73
     0
 74
     0
 95
       26
 96
       22
 40
0.0
 40
0.0
 40
0.0
 40
0.0
 40
1.0
 40
1.0
 40
1.0
 40
2.0
 40
2.0
 40
2.0
 40
3.0
 40
3.0
 40
3.0
 40
4.0
 40
4.0
 40
4.0
 40
5.0
 40
5.0
 40
5.0
 40
6.0
 40
6.0
 40
6.0
 40
7.0
 40
7.0
 40
7.0
 40
7.0
 10
344.29296875
 20
-383.03369140625
 10
344.29296875
 20
-383.03369140625
 10
346.537109375
 20
-383.03369140625
 10
346.537109375
 20
-383.03369140625
 10
346.9931640625
 20
-383.03369140625
 10
347.3671875
 20
-382.921875
 10
347.6591796875
 20
-382.69775390625
 10
347.951171875
 20
-382.4736328125
 10
348.0966796875
 20
-382.1337890625
 10
348.0966796875
 20
-381.677734375
 10
348.0966796875
 20
-381.2216796875
 10
347.951171875
 20
-380.8837890625
 10
347.6591796875
 20
-380.66357421875
 10
347.3671875
 20
-380.44384765625
 10
346.9931640625
 20
-380.33349609375
 10
346.537109375
 20
-380.33349609375
 10
346.537109375
 20
-380.33349609375
 10
344.29296875
 20
-380.33349609375
 10
344.29296875
 20
-380.33349609375
 10
344.29296875
 20
-380.33349609375
 10
344.29296875
 20
-383.03369140625
 10
344.29296875
 20
-383.03369140625
 97
        0
 97
        1
330
9D
 92
        1
 93
        1
 72
     4
 94
        3
 73
     0
 74
     0
 95
       56
 96
       52
 40
0.0
 40
0.0
 40
0.0
 40
0.0
 40
1.0
 40
1.0
 40
1.0
 40
2.0
 40
2.0
 40
2.0
 40
3.0
 40
3.0
 40
3.0
 40
4.0
 40
4.0
 40
4.0
 40
5.0
 40
5.0
 40
5.0
 40
6.0
 40
6.0
 40
6.0
 40
7.0
 40
7.0
 40
7.0
 40
8.0
 40
8.0
 40
8.0
 40
9.0
 40
9.0
 40
9.0
 40
10.0
 40
10.0
 40
10.0
 40
11.0
 40
11.0
 40
11.0
 40
12.0
 40
12.0
 40
12.0
 40
13.0
 40
13.0
 40
13.0
 40
14.0
 40
14.0
 40
14.0
 40
15.0
 40
15.0
 40
15.0
 40
16.0
 40
16.0
 40
16.0
 40
17.0
 40
17.0
 40
17.0
 40
17.0
 10
343.6689453125
 20
-388.5537109375
 10
343.4931640625
 20
-388.5537109375
 10
343.3447265625
 20
-388.49365234375
 10
343.224609375
 20
-388.37353515625
 10
343.1044921875
 20
-388.25390625
 10
343.044921875
 20
-388.10595703125
 10
343.044921875
 20
-387.9296875
 10
343.044921875
 20
-387.9296875
 10
343.044921875
 20
-379.8056640625
 10
343.044921875
 20
-379.8056640625
 10
343.044921875
 20
-379.62158203125
 10
343.1044921875
 20
-379.4716796875
 10
343.224609375
 20
-379.35546875
 10
343.3447265625
 20
-379.23974609375
 10
343.4931640625
 20
-379.181640625
 10
343.6689453125
 20
-379.181640625
 10
343.6689453125
 20
-379.181640625
 10
346.537109375
 20
-379.181640625
 10
346.537109375
 20
-379.181640625
 10
347.0810546875
 20
-379.181640625
 10
347.55859375
 20
-379.28759765625
 10
347.970703125
 20
-379.49951171875
 10
348.3828125
 20
-379.7119140625
 10
348.70703125
 20
-380.005859375
 10
348.943359375
 20
-380.3818359375
 10
349.1787109375
 20
-380.7578125
 10
349.296875
 20
-381.18994140625
 10
349.296875
 20
-381.677734375
 10
349.296875
 20
-382.06982421875
 10
349.1904296875
 20
-382.423828125
 10
348.978515625
 20
-382.73974609375
 10
348.7666015625
 20
-383.0556640625
 10
348.4765625
 20
-383.3056640625
 10
348.109375
 20
-383.48974609375
 10
348.63671875
 20
-383.61767578125
 10
349.060546875
 20
-383.86962890625
 10
349.380859375
 20
-384.24560546875
 10
349.701171875
 20
-384.6220703125
 10
349.861328125
 20
-385.11376953125
 10
349.861328125
 20
-385.7216796875
 10
349.861328125
 20
-386.27392578125
 10
349.73046875
 20
-386.76171875
 10
349.470703125
 20
-387.185546875
 10
349.2109375
 20
-387.60986328125
 10
348.8486328125
 20
-387.94384765625
 10
348.384765625
 20
-388.1875
 10
347.9208984375
 20
-388.431640625
 10
347.388671875
 20
-388.5537109375
 10
346.7890625
 20
-388.5537109375
 10
346.7890625
 20
-388.5537109375
 10
343.6689453125
 20
-388.5537109375
 10
343.6689453125
 20
-388.5537109375
 97
        0
 97
        1
330
9E
 75
     2
 76
     1
 98
        1
 10
0.0
 20
0.0
450
        0
451
        0
460
0.0
461
0.0
452
        0
462
0.0
453
        0
470

  0
SPLINE
  5
A0
330
81
100
AcDbEntity
  8
Layer 1
100
AcDbSpline
210
0.0
220
0.0
230
1.0
 70
     9
 71
     3
 72
    47
 73
    43
 74
     0
 42
0.0000000001
 43
0.0000000001
 40
0.0
 40
0.0
 40
0.0
 40
0.0
 40
1.0
 40
1.0
 40
1.0
 40
2.0
 40
2.0
 40
2.0
 40
3.0
 40
3.0
 40
3.0
 40
4.0
 40
4.0
 40
4.0
 40
5.0
 40
5.0
 40
5.0
 40
6.0
 40
6.0
 40
6.0
 40
7.0
 40
7.0
 40
7.0
 40
8.0
 40
8.0
 40
8.0
 40
9.0
 40
9.0
 40
9.0
 40
10.0
 40
10.0
 40
10.0
 40
11.0
 40
11.0
 40
11.0
 40
12.0
 40
12.0
 40
12.0
 40
13.0
 40
13.0
 40
13.0
 40
14.0
 40
14.0
 40
14.0
 40
14.0
 10
352.3330078125
 20
-388.5537109375
 30
0.0
 10
352.15625
 20
-388.5537109375
 30
0.0
 10
352.0107421875
 20
-388.49365234375
 30
0.0
 10
351.89453125
 20
-388.37353515625
 30
0.0
 10
351.7783203125
 20
-388.25390625
 30
0.0
 10
351.720703125
 20
-388.10595703125
 30
0.0
 10
351.720703125
 20
-387.9296875
 30
0.0
 10
351.720703125
 20
-387.9296875
 30
0.0
 10
351.720703125
 20
-379.8056640625
 30
0.0
 10
351.720703125
 20
-379.8056640625
 30
0.0
 10
351.720703125
 20
-379.6298828125
 30
0.0
 10
351.7802734375
 20
-379.48193359375
 30
0.0
 10
351.900390625
 20
-379.36181640625
 30
0.0
 10
352.0205078125
 20
-379.24169921875
 30
0.0
 10
352.1650390625
 20
-379.181640625
 30
0.0
 10
352.3330078125
 20
-379.181640625
 30
0.0
 10
352.5087890625
 20
-379.181640625
 30
0.0
 10
352.6572265625
 20
-379.24169921875
 30
0.0
 10
352.7763671875
 20
-379.36181640625
 30
0.0
 10
352.896484375
 20
-379.48193359375
 30
0.0
 10
352.95703125
 20
-379.6298828125
 30
0.0
 10
352.95703125
 20
-379.8056640625
 30
0.0
 10
352.95703125
 20
-379.8056640625
 30
0.0
 10
352.95703125
 20
-387.3056640625
 30
0.0
 10
352.95703125
 20
-387.3056640625
 30
0.0
 10
352.95703125
 20
-387.3056640625
 30
0.0
 10
357.30078125
 20
-387.3056640625
 30
0.0
 10
357.30078125
 20
-387.3056640625
 30
0.0
 10
357.4765625
 20
-387.3056640625
 30
0.0
 10
357.625
 20
-387.36572265625
 30
0.0
 10
357.7451171875
 20
-387.48583984375
 30
0.0
 10
357.865234375
 20
-387.60546875
 30
0.0
 10
357.9248046875
 20
-387.75390625
 30
0.0
 10
357.9248046875
 20
-387.9296875
 30
0.0
 10
357.9248046875
 20
-388.10595703125
 30
0.0
 10
357.865234375
 20
-388.25390625
 30
0.0
 10
357.7451171875
 20
-388.37353515625
 30
0.0
 10
357.625
 20
-388.49365234375
 30
0.0
 10
357.4765625
 20
-388.5537109375
 30
0.0
 10
357.30078125
 20
-388.5537109375
 30
0.0
 10
357.30078125
 20
-388.5537109375
 30
0.0
 10
352.3330078125
 20
-388.5537109375
 30
0.0
 10
352.3330078125
 20
-388.5537109375
 30
0.0
  0
HATCH
  5
A1
330
81
100
AcDbEntity
  8
Layer 1
 62
   250
420
  2301728
440
 33554687
100
AcDbHatch
 10
0.0
 20
0.0
 30
0.0
210
0.0
220
0.0
230
1.0
  2
SOLID
 70
     1
 71
     1
 91
        1
 92
        1
 93
        1
 72
     4
 94
        3
 73
     0
 74
     0
 95
       47
 96
       43
 40
0.0
 40
0.0
 40
0.0
 40
0.0
 40
1.0
 40
1.0
 40
1.0
 40
2.0
 40
2.0
 40
2.0
 40
3.0
 40
3.0
 40
3.0
 40
4.0
 40
4.0
 40
4.0
 40
5.0
 40
5.0
 40
5.0
 40
6.0
 40
6.0
 40
6.0
 40
7.0
 40
7.0
 40
7.0
 40
8.0
 40
8.0
 40
8.0
 40
9.0
 40
9.0
 40
9.0
 40
10.0
 40
10.0
 40
10.0
 40
11.0
 40
11.0
 40
11.0
 40
12.0
 40
12.0
 40
12.0
 40
13.0
 40
13.0
 40
13.0
 40
14.0
 40
14.0
 40
14.0
 40
14.0
 10
352.3330078125
 20
-388.5537109375
 10
352.15625
 20
-388.5537109375
 10
352.0107421875
 20
-388.49365234375
 10
351.89453125
 20
-388.37353515625
 10
351.7783203125
 20
-388.25390625
 10
351.720703125
 20
-388.10595703125
 10
351.720703125
 20
-387.9296875
 10
351.720703125
 20
-387.9296875
 10
351.720703125
 20
-379.8056640625
 10
351.720703125
 20
-379.8056640625
 10
351.720703125
 20
-379.6298828125
 10
351.7802734375
 20
-379.48193359375
 10
351.900390625
 20
-379.36181640625
 10
352.0205078125
 20
-379.24169921875
 10
352.1650390625
 20
-379.181640625
 10
352.3330078125
 20
-379.181640625
 10
352.5087890625
 20
-379.181640625
 10
352.6572265625
 20
-379.24169921875
 10
352.7763671875
 20
-379.36181640625
 10
352.896484375
 20
-379.48193359375
 10
352.95703125
 20
-379.6298828125
 10
352.95703125
 20
-379.8056640625
 10
352.95703125
 20
-379.8056640625
 10
352.95703125
 20
-387.3056640625
 10
352.95703125
 20
-387.3056640625
 10
352.95703125
 20
-387.3056640625
 10
357.30078125
 20
-387.3056640625
 10
357.30078125
 20
-387.3056640625
 10
357.4765625
 20
-387.3056640625
 10
357.625
 20
-387.36572265625
 10
357.7451171875
 20
-387.48583984375
 10
357.865234375
 20
-387.60546875
 10
357.9248046875
 20
-387.75390625
 10
357.9248046875
 20
-387.9296875
 10
357.9248046875
 20
-388.10595703125
 10
357.865234375
 20
-388.25390625
 10
357.7451171875
 20
-388.37353515625
 10
357.625
 20
-388.49365234375
 10
357.4765625
 20
-388.5537109375
 10
357.30078125
 20
-388.5537109375
 10
357.30078125
 20
-388.5537109375
 10
352.3330078125
 20
-388.5537109375
 10
352.3330078125
 20
-388.5537109375
 97
        0
 97
        1
330
A0
 75
     2
 76
     1
 98
        1
 10
0.0
 20
0.0
450
        0
451
        0
460
0.0
461
0.0
452
        0
462
0.0
453
        0
470

  0
SPLINE
  5
A2
330
81
100
AcDbEntity
  8
Layer 1
100
AcDbSpline
210
0.0
220
0.0
230
1.0
 70
     9
 71
     3
 72
    80
 73
    76
 74
     0
 42
0.0000000001
 43
0.0000000001
 40
0.0
 40
0.0
 40
0.0
 40
0.0
 40
1.0
 40
1.0
 40
1.0
 40
2.0
 40
2.0
 40
2.0
 40
3.0
 40
3.0
 40
3.0
 40
4.0
 40
4.0
 40
4.0
 40
5.0
 40
5.0
 40
5.0
 40
6.0
 40
6.0
 40
6.0
 40
7.0
 40
7.0
 40
7.0
 40
8.0
 40
8.0
 40
8.0
 40
9.0
 40
9.0
 40
9.0
 40
10.0
 40
10.0
 40
10.0
 40
11.0
 40
11.0
 40
11.0
 40
12.0
 40
12.0
 40
12.0
 40
13.0
 40
13.0
 40
13.0
 40
14.0
 40
14.0
 40
14.0
 40
15.0
 40
15.0
 40
15.0
 40
16.0
 40
16.0
 40
16.0
 40
17.0
 40
17.0
 40
17.0
 40
18.0
 40
18.0
 40
18.0
 40
19.0
 40
19.0
 40
19.0
 40
20.0
 40
20.0
 40
20.0
 40
21.0
 40
21.0
 40
21.0
 40
22.0
 40
22.0
 40
22.0
 40
23.0
 40
23.0
 40
23.0
 40
24.0
 40
24.0
 40
24.0
 40
25.0
 40
25.0
 40
25.0
 40
25.0
 10
360.048828125
 20
-388.5537109375
 30
0.0
 10
359.873046875
 20
-388.5537109375
 30
0.0
 10
359.724609375
 20
-388.49365234375
 30
0.0
 10
359.6044921875
 20
-388.37353515625
 30
0.0
 10
359.484375
 20
-388.25390625
 30
0.0
 10
359.4248046875
 20
-388.10595703125
 30
0.0
 10
359.4248046875
 20
-387.9296875
 30
0.0
 10
359.4248046875
 20
-387.9296875
 30
0.0
 10
359.4248046875
 20
-379.8056640625
 30
0.0
 10
359.4248046875
 20
-379.8056640625
 30
0.0
 10
359.4248046875
 20
-379.62158203125
 30
0.0
 10
359.484375
 20
-379.4716796875
 30
0.0
 10
359.6044921875
 20
-379.35546875
 30
0.0
 10
359.724609375
 20
-379.23974609375
 30
0.0
 10
359.873046875
 20
-379.181640625
 30
0.0
 10
360.048828125
 20
-379.181640625
 30
0.0
 10
360.048828125
 20
-379.181640625
 30
0.0
 10
365.47265625
 20
-379.181640625
 30
0.0
 10
365.47265625
 20
-379.181640625
 30
0.0
 10
365.65625
 20
-379.181640625
 30
0.0
 10
365.8046875
 20
-379.23583984375
 30
0.0
 10
365.9169921875
 20
-379.34375
 30
0.0
 10
366.0283203125
 20
-379.45166015625
 30
0.0
 10
366.0849609375
 20
-379.59375
 30
0.0
 10
366.0849609375
 20
-379.76953125
 30
0.0
 10
366.0849609375
 20
-379.9375
 30
0.0
 10
366.0283203125
 20
-380.07373046875
 30
0.0
 10
365.9169921875
 20
-380.177734375
 30
0.0
 10
365.8046875
 20
-380.28173828125
 30
0.0
 10
365.65625
 20
-380.33349609375
 30
0.0
 10
365.47265625
 20
-380.33349609375
 30
0.0
 10
365.47265625
 20
-380.33349609375
 30
0.0
 10
360.6728515625
 20
-380.33349609375
 30
0.0
 10
360.6728515625
 20
-380.33349609375
 30
0.0
 10
360.6728515625
 20
-380.33349609375
 30
0.0
 10
360.6728515625
 20
-383.24951171875
 30
0.0
 10
360.6728515625
 20
-383.24951171875
 30
0.0
 10
360.6728515625
 20
-383.24951171875
 30
0.0
 10
364.1162109375
 20
-383.24951171875
 30
0.0
 10
364.1162109375
 20
-383.24951171875
 30
0.0
 10
364.30078125
 20
-383.24951171875
 30
0.0
 10
364.4482421875
 20
-383.3037109375
 30
0.0
 10
364.560546875
 20
-383.41162109375
 30
0.0
 10
364.6728515625
 20
-383.51953125
 30
0.0
 10
364.728515625
 20
-383.65771484375
 30
0.0
 10
364.728515625
 20
-383.82568359375
 30
0.0
 10
364.728515625
 20
-383.99365234375
 30
0.0
 10
364.6728515625
 20
-384.1318359375
 30
0.0
 10
364.560546875
 20
-384.23974609375
 30
0.0
 10
364.4482421875
 20
-384.34765625
 30
0.0
 10
364.30078125
 20
-384.40185546875
 30
0.0
 10
364.1162109375
 20
-384.40185546875
 30
0.0
 10
364.1162109375
 20
-384.40185546875
 30
0.0
 10
360.6728515625
 20
-384.40185546875
 30
0.0
 10
360.6728515625
 20
-384.40185546875
 30
0.0
 10
360.6728515625
 20
-384.40185546875
 30
0.0
 10
360.6728515625
 20
-387.40185546875
 30
0.0
 10
360.6728515625
 20
-387.40185546875
 30
0.0
 10
360.6728515625
 20
-387.40185546875
 30
0.0
 10
365.47265625
 20
-387.40185546875
 30
0.0
 10
365.47265625
 20
-387.40185546875
 30
0.0
 10
365.65625
 20
-387.40185546875
 30
0.0
 10
365.8046875
 20
-387.45361328125
 30
0.0
 10
365.9169921875
 20
-387.5576171875
 30
0.0
 10
366.0283203125
 20
-387.66162109375
 30
0.0
 10
366.0849609375
 20
-387.7978515625
 30
0.0
 10
366.0849609375
 20
-387.9658203125
 30
0.0
 10
366.0849609375
 20
-388.1416015625
 30
0.0
 10
366.0283203125
 20
-388.28369140625
 30
0.0
 10
365.9169921875
 20
-388.3916015625
 30
0.0
 10
365.8046875
 20
-388.49951171875
 30
0.0
 10
365.65625
 20
-388.5537109375
 30
0.0
 10
365.47265625
 20
-388.5537109375
 30
0.0
 10
365.47265625
 20
-388.5537109375
 30
0.0
 10
360.048828125
 20
-388.5537109375
 30
0.0
 10
360.048828125
 20
-388.5537109375
 30
0.0
  0
HATCH
  5
A3
330
81
100
AcDbEntity
  8
Layer 1
 62
   250
420
  2301728
440
 33554687
100
AcDbHatch
 10
0.0
 20
0.0
 30
0.0
210
0.0
220
0.0
230
1.0
  2
SOLID
 70
     1
 71
     1
 91
        1
 92
        1
 93
        1
 72
     4
 94
        3
 73
     0
 74
     0
 95
       80
 96
       76
 40
0.0
 40
0.0
 40
0.0
 40
0.0
 40
1.0
 40
1.0
 40
1.0
 40
2.0
 40
2.0
 40
2.0
 40
3.0
 40
3.0
 40
3.0
 40
4.0
 40
4.0
 40
4.0
 40
5.0
 40
5.0
 40
5.0
 40
6.0
 40
6.0
 40
6.0
 40
7.0
 40
7.0
 40
7.0
 40
8.0
 40
8.0
 40
8.0
 40
9.0
 40
9.0
 40
9.0
 40
10.0
 40
10.0
 40
10.0
 40
11.0
 40
11.0
 40
11.0
 40
12.0
 40
12.0
 40
12.0
 40
13.0
 40
13.0
 40
13.0
 40
14.0
 40
14.0
 40
14.0
 40
15.0
 40
15.0
 40
15.0
 40
16.0
 40
16.0
 40
16.0
 40
17.0
 40
17.0
 40
17.0
 40
18.0
 40
18.0
 40
18.0
 40
19.0
 40
19.0
 40
19.0
 40
20.0
 40
20.0
 40
20.0
 40
21.0
 40
21.0
 40
21.0
 40
22.0
 40
22.0
 40
22.0
 40
23.0
 40
23.0
 40
23.0
 40
24.0
 40
24.0
 40
24.0
 40
25.0
 40
25.0
 40
25.0
 40
25.0
 10
360.048828125
 20
-388.5537109375
 10
359.873046875
 20
-388.5537109375
 10
359.724609375
 20
-388.49365234375
 10
359.6044921875
 20
-388.37353515625
 10
359.484375
 20
-388.25390625
 10
359.4248046875
 20
-388.10595703125
 10
359.4248046875
 20
-387.9296875
 10
359.4248046875
 20
-387.9296875
 10
359.4248046875
 20
-379.8056640625
 10
359.4248046875
 20
-379.8056640625
 10
359.4248046875
 20
-379.62158203125
 10
359.484375
 20
-379.4716796875
 10
359.6044921875
 20
-379.35546875
 10
359.724609375
 20
-379.23974609375
 10
359.873046875
 20
-379.181640625
 10
360.048828125
 20
-379.181640625
 10
360.048828125
 20
-379.181640625
 10
365.47265625
 20
-379.181640625
 10
365.47265625
 20
-379.181640625
 10
365.65625
 20
-379.181640625
 10
365.8046875
 20
-379.23583984375
 10
365.9169921875
 20
-379.34375
 10
366.0283203125
 20
-379.45166015625
 10
366.0849609375
 20
-379.59375
 10
366.0849609375
 20
-379.76953125
 10
366.0849609375
 20
-379.9375
 10
366.0283203125
 20
-380.07373046875
 10
365.9169921875
 20
-380.177734375
 10
365.8046875
 20
-380.28173828125
 10
365.65625
 20
-380.33349609375
 10
365.47265625
 20
-380.33349609375
 10
365.47265625
 20
-380.33349609375
 10
360.6728515625
 20
-380.33349609375
 10
360.6728515625
 20
-380.33349609375
 10
360.6728515625
 20
-380.33349609375
 10
360.6728515625
 20
-383.24951171875
 10
360.6728515625
 20
-383.24951171875
 10
360.6728515625
 20
-383.24951171875
 10
364.1162109375
 20
-383.24951171875
 10
364.1162109375
 20
-383.24951171875
 10
364.30078125
 20
-383.24951171875
 10
364.4482421875
 20
-383.3037109375
 10
364.560546875
 20
-383.41162109375
 10
364.6728515625
 20
-383.51953125
 10
364.728515625
 20
-383.65771484375
 10
364.728515625
 20
-383.82568359375
 10
364.728515625
 20
-383.99365234375
 10
364.6728515625
 20
-384.1318359375
 10
364.560546875
 20
-384.23974609375
 10
364.4482421875
 20
-384.34765625
 10
364.30078125
 20
-384.40185546875
 10
364.1162109375
 20
-384.40185546875
 10
364.1162109375
 20
-384.40185546875
 10
360.6728515625
 20
-384.40185546875
 10
360.6728515625
 20
-384.40185546875
 10
360.6728515625
 20
-384.40185546875
 10
360.6728515625
 20
-387.40185546875
 10
360.6728515625
 20
-387.40185546875
 10
360.6728515625
 20
-387.40185546875
 10
365.47265625
 20
-387.40185546875
 10
365.47265625
 20
-387.40185546875
 10
365.65625
 20
-387.40185546875
 10
365.8046875
 20
-387.45361328125
 10
365.9169921875
 20
-387.5576171875
 10
366.0283203125
 20
-387.66162109375
 10
366.0849609375
 20
-387.7978515625
 10
366.0849609375
 20
-387.9658203125
 10
366.0849609375
 20
-388.1416015625
 10
366.0283203125
 20
-388.28369140625
 10
365.9169921875
 20
-388.3916015625
 10
365.8046875
 20
-388.49951171875
 10
365.65625
 20
-388.5537109375
 10
365.47265625
 20
-388.5537109375
 10
365.47265625
 20
-388.5537109375
 10
360.048828125
 20
-388.5537109375
 10
360.048828125
 20
-388.5537109375
 97
        0
 97
        1
330
A2
 75
     2
 76
     1
 98
        1
 10
0.0
 20
0.0
450
        0
451
        0
460
0.0
461
0.0
452
        0
462
0.0
453
        0
470

  0
ENDBLK
  5
84
330
81
100
AcDbEntity
  8
0
100
AcDbBlockEnd
  0
BLOCK
  5
A9
330
A7
100
AcDbEntity
  8
0
100
AcDbBlockBegin
  2
Block_3
 70
     0
 10
0.0
 20
0.0
 30
0.0
  3
Block_3
  1

  0
LINE
  5
AB
330
A7
100
AcDbEntity
  8
Layer 1
 62
   250
420
  2301728
370
    35
100
AcDbLine
 10
253.2595969976019
 20
-378.8863396227171
 30
0.0
 11
251.8453834352285
 21
-377.4721260603437
 31
0.0
  0
LINE
  5
AC
330
A7
100
AcDbEntity
  8
Layer 1
 62
   250
420
  2301728
370
    35
100
AcDbLine
 10
258.3892273673991
 20
-378.8863396227171
 30
0.0
 11
259.8034409297725
 21
-377.4721260603437
 31
0.0
  0
ENDBLK
  5
AA
330
A7
100
AcDbEntity
  8
0
100
AcDbBlockEnd
  0
BLOCK
  5
B0
330
AE
100
AcDbEntity
  8
0
100
AcDbBlockBegin
  2
Block_4
 70
     0
 10
0.0
 20
0.0
 30
0.0
  3
Block_4
  1

  0
SPLINE
  5
B2
330
AE
100
AcDbEntity
  8
Layer 2
100
AcDbSpline
210
0.0
220
0.0
230
1.0
 70
    11
 71
     3
 72
    20
 73
    16
 74
     0
 42
0.0000000001
 43
0.0000000001
 40
0.0
 40
0.0
 40
0.0
 40
0.0
 40
1.0
 40
1.0
 40
1.0
 40
2.0
 40
2.0
 40
2.0
 40
3.0
 40
3.0
 40
3.0
 40
4.0
 40
4.0
 40
4.0
 40
5.0
 40
5.0
 40
5.0
 40
5.0
 10
299.4111691999742
 20
-314.8583984375
 30
0.0
 10
299.4111691999742
 20
-314.8583984375
 30
0.0
 10
323.0991574812251
 20
-314.8583984375
 30
0.0
 10
323.0991574812251
 20
-314.8583984375
 30
0.0
 10
323.0991574812251
 20
-314.8583984375
 30
0.0
 10
323.0991574812251
 20
-299.34228515625
 30
0.0
 10
323.0991574812251
 20
-299.34228515625
 30
0.0
 10
323.0991574812251
 20
-292.8115234375
 30
0.0
 10
317.7866574812251
 20
-287.498046875
 30
0.0
 10
311.2554074812251
 20
-287.498046875
 30
0.0
 10
304.7246457624742
 20
-287.498046875
 30
0.0
 10
299.4111691999742
 20
-292.8115234375
 30
0.0
 10
299.4111691999742
 20
-299.34228515625
 30
0.0
 10
299.4111691999742
 20
-299.34228515625
 30
0.0
 10
299.4111691999742
 20
-314.8583984375
 30
0.0
 10
299.4111691999742
 20
-314.8583984375
 30
0.0
  0
SPLINE
  5
B3
330
AE
100
AcDbEntity
  8
Layer 2
100
AcDbSpline
210
0.0
220
0.0
230
1.0
 70
    11
 71
     3
 72
    20
 73
    16
 74
     0
 42
0.0000000001
 43
0.0000000001
 40
0.0
 40
0.0
 40
0.0
 40
0.0
 40
1.0
 40
1.0
 40
1.0
 40
2.0
 40
2.0
 40
2.0
 40
3.0
 40
3.0
 40
3.0
 40
4.0
 40
4.0
 40
4.0
 40
5.0
 40
5.0
 40
5.0
 40
5.0
 10
299.4111691999742
 20
-322.900390625
 30
0.0
 10
299.4111691999742
 20
-322.900390625
 30
0.0
 10
299.4111691999742
 20
-338.416015625
 30
0.0
 10
299.4111691999742
 20
-338.416015625
 30
0.0
 10
299.4111691999742
 20
-344.94677734375
 30
0.0
 10
304.7246457624742
 20
-350.26025390625
 30
0.0
 10
311.2554074812251
 20
-350.26025390625
 30
0.0
 10
317.7866574812251
 20
-350.26025390625
 30
0.0
 10
323.0991574812251
 20
-344.94677734375
 30
0.0
 10
323.0991574812251
 20
-338.416015625
 30
0.0
 10
323.0991574812251
 20
-338.416015625
 30
0.0
 10
323.0991574812251
 20
-322.900390625
 30
0.0
 10
323.0991574812251
 20
-322.900390625
 30
0.0
 10
323.0991574812251
 20
-322.900390625
 30
0.0
 10
299.4111691999742
 20
-322.900390625
 30
0.0
 10
299.4111691999742
 20
-322.900390625
 30
0.0
  0
SPLINE
  5
B4
330
AE
100
AcDbEntity
  8
Layer 2
100
AcDbSpline
210
0.0
220
0.0
230
1.0
 70
     9
 71
     3
 72
    23
 73
    19
 74
     0
 42
0.0000000001
 43
0.0000000001
 40
0.0
 40
0.0
 40
0.0
 40
0.0
 40
1.0
 40
1.0
 40
1.0
 40
2.0
 40
2.0
 40
2.0
 40
3.0
 40
3.0
 40
3.0
 40
4.0
 40
4.0
 40
4.0
 40
5.0
 40
5.0
 40
5.0
 40
6.0
 40
6.0
 40
6.0
 40
6.0
 10
311.2554074812251
 20
-358.30224609375
 30
0.0
 10
300.2900754499742
 20
-358.30224609375
 30
0.0
 10
291.3691770124742
 20
-349.38134765625
 30
0.0
 10
291.3691770124742
 20
-338.416015625
 30
0.0
 10
291.3691770124742
 20
-338.416015625
 30
0.0
 10
291.3691770124742
 20
-299.34228515625
 30
0.0
 10
291.3691770124742
 20
-299.34228515625
 30
0.0
 10
291.3691770124742
 20
-288.376953125
 30
0.0
 10
300.2900754499742
 20
-279.4560546875
 30
0.0
 10
311.2554074812251
 20
-279.4560546875
 30
0.0
 10
322.2212277937251
 20
-279.4560546875
 30
0.0
 10
331.1421262312251
 20
-288.376953125
 30
0.0
 10
331.1421262312251
 20
-299.34228515625
 30
0.0
 10
331.1421262312251
 20
-299.34228515625
 30
0.0
 10
331.1421262312251
 20
-338.416015625
 30
0.0
 10
331.1421262312251
 20
-338.416015625
 30
0.0
 10
331.1421262312251
 20
-349.38134765625
 30
0.0
 10
322.2212277937251
 20
-358.30224609375
 30
0.0
 10
311.2554074812251
 20
-358.30224609375
 30
0.0
  0
HATCH
  5
B5
330
AE
100
AcDbEntity
  8
Layer 2
 62
   250
420
  2301728
440
 33554687
100
AcDbHatch
 10
0.0
 20
0.0
 30
0.0
210
0.0
220
0.0
230
1.0
  2
SOLID
 70
     1
 71
     1
 91
        3
 92
        1
 93
        1
 72
     4
 94
        3
 73
     0
 74
     0
 95
       20
 96
       16
 40
0.0
 40
0.0
 40
0.0
 40
0.0
 40
1.0
 40
1.0
 40
1.0
 40
2.0
 40
2.0
 40
2.0
 40
3.0
 40
3.0
 40
3.0
 40
4.0
 40
4.0
 40
4.0
 40
5.0
 40
5.0
 40
5.0
 40
5.0
 10
299.4111691999742
 20
-314.8583984375
 10
299.4111691999742
 20
-314.8583984375
 10
323.0991574812251
 20
-314.8583984375
 10
323.0991574812251
 20
-314.8583984375
 10
323.0991574812251
 20
-314.8583984375
 10
323.0991574812251
 20
-299.34228515625
 10
323.0991574812251
 20
-299.34228515625
 10
323.0991574812251
 20
-292.8115234375
 10
317.7866574812251
 20
-287.498046875
 10
311.2554074812251
 20
-287.498046875
 10
304.7246457624742
 20
-287.498046875
 10
299.4111691999742
 20
-292.8115234375
 10
299.4111691999742
 20
-299.34228515625
 10
299.4111691999742
 20
-299.34228515625
 10
299.4111691999742
 20
-314.8583984375
 10
299.4111691999742
 20
-314.8583984375
 97
        0
 97
        1
330
B2
 92
        1
 93
        1
 72
     4
 94
        3
 73
     0
 74
     0
 95
       20
 96
       16
 40
0.0
 40
0.0
 40
0.0
 40
0.0
 40
1.0
 40
1.0
 40
1.0
 40
2.0
 40
2.0
 40
2.0
 40
3.0
 40
3.0
 40
3.0
 40
4.0
 40
4.0
 40
4.0
 40
5.0
 40
5.0
 40
5.0
 40
5.0
 10
299.4111691999742
 20
-322.900390625
 10
299.4111691999742
 20
-322.900390625
 10
299.4111691999742
 20
-338.416015625
 10
299.4111691999742
 20
-338.416015625
 10
299.4111691999742
 20
-344.94677734375
 10
304.7246457624742
 20
-350.26025390625
 10
311.2554074812251
 20
-350.26025390625
 10
317.7866574812251
 20
-350.26025390625
 10
323.0991574812251
 20
-344.94677734375
 10
323.0991574812251
 20
-338.416015625
 10
323.0991574812251
 20
-338.416015625
 10
323.0991574812251
 20
-322.900390625
 10
323.0991574812251
 20
-322.900390625
 10
323.0991574812251
 20
-322.900390625
 10
299.4111691999742
 20
-322.900390625
 10
299.4111691999742
 20
-322.900390625
 97
        0
 97
        1
330
B3
 92
        1
 93
        1
 72
     4
 94
        3
 73
     0
 74
     0
 95
       23
 96
       19
 40
0.0
 40
0.0
 40
0.0
 40
0.0
 40
1.0
 40
1.0
 40
1.0
 40
2.0
 40
2.0
 40
2.0
 40
3.0
 40
3.0
 40
3.0
 40
4.0
 40
4.0
 40
4.0
 40
5.0
 40
5.0
 40
5.0
 40
6.0
 40
6.0
 40
6.0
 40
6.0
 10
311.2554074812251
 20
-358.30224609375
 10
300.2900754499742
 20
-358.30224609375
 10
291.3691770124742
 20
-349.38134765625
 10
291.3691770124742
 20
-338.416015625
 10
291.3691770124742
 20
-338.416015625
 10
291.3691770124742
 20
-299.34228515625
 10
291.3691770124742
 20
-299.34228515625
 10
291.3691770124742
 20
-288.376953125
 10
300.2900754499742
 20
-279.4560546875
 10
311.2554074812251
 20
-279.4560546875
 10
322.2212277937251
 20
-279.4560546875
 10
331.1421262312251
 20
-288.376953125
 10
331.1421262312251
 20
-299.34228515625
 10
331.1421262312251
 20
-299.34228515625
 10
331.1421262312251
 20
-338.416015625
 10
331.1421262312251
 20
-338.416015625
 10
331.1421262312251
 20
-349.38134765625
 10
322.2212277937251
 20
-358.30224609375
 10
311.2554074812251
 20
-358.30224609375
 97
        0
 97
        1
330
B4
 75
     2
 76
     1
 98
        1
 10
0.0
 20
0.0
450
        0
451
        0
460
0.0
461
0.0
452
        0
462
0.0
453
        0
470

  0
SPLINE
  5
B6
330
AE
100
AcDbEntity
  8
Layer 2
100
AcDbSpline
210
0.0
220
0.0
230
1.0
 70
    11
 71
     3
 72
    23
 73
    19
 74
     0
 42
0.0000000001
 43
0.0000000001
 40
0.0
 40
0.0
 40
0.0
 40
0.0
 40
1.0
 40
1.0
 40
1.0
 40
2.0
 40
2.0
 40
2.0
 40
3.0
 40
3.0
 40
3.0
 40
4.0
 40
4.0
 40
4.0
 40
5.0
 40
5.0
 40
5.0
 40
6.0
 40
6.0
 40
6.0
 40
6.0
 10
311.2925168562251
 20
-273.341796875
 30
0.0
 10
309.0718137312251
 20
-273.341796875
 30
0.0
 10
307.2715207624751
 20
-271.54150390625
 30
0.0
 10
307.2715207624751
 20
-269.32080078125
 30
0.0
 10
307.2715207624751
 20
-269.32080078125
 30
0.0
 10
307.2715207624751
 20
-253.236328125
 30
0.0
 10
307.2715207624751
 20
-253.236328125
 30
0.0
 10
307.2715207624751
 20
-251.015625
 30
0.0
 10
309.0718137312251
 20
-249.21533203125
 30
0.0
 10
311.2925168562251
 20
-249.21533203125
 30
0.0
 10
313.5132199812251
 20
-249.21533203125
 30
0.0
 10
315.3140012312251
 20
-251.015625
 30
0.0
 10
315.3140012312251
 20
-253.236328125
 30
0.0
 10
315.3140012312251
 20
-253.236328125
 30
0.0
 10
315.3140012312251
 20
-269.32080078125
 30
0.0
 10
315.3140012312251
 20
-269.32080078125
 30
0.0
 10
315.3140012312251
 20
-271.54150390625
 30
0.0
 10
313.5132199812251
 20
-273.341796875
 30
0.0
 10
311.2925168562251
 20
-273.341796875
 30
0.0
  0
HATCH
  5
B7
330
AE
100
AcDbEntity
  8
Layer 2
 62
   250
420
  2301728
440
 33554687
100
AcDbHatch
 10
0.0
 20
0.0
 30
0.0
210
0.0
220
0.0
230
1.0
  2
SOLID
 70
     1
 71
     1
 91
        1
 92
        1
 93
        1
 72
     4
 94
        3
 73
     0
 74
     0
 95
       23
 96
       19
 40
0.0
 40
0.0
 40
0.0
 40
0.0
 40
1.0
 40
1.0
 40
1.0
 40
2.0
 40
2.0
 40
2.0
 40
3.0
 40
3.0
 40
3.0
 40
4.0
 40
4.0
 40
4.0
 40
5.0
 40
5.0
 40
5.0
 40
6.0
 40
6.0
 40
6.0
 40
6.0
 10
311.2925168562251
 20
-273.341796875
 10
309.0718137312251
 20
-273.341796875
 10
307.2715207624751
 20
-271.54150390625
 10
307.2715207624751
 20
-269.32080078125
 10
307.2715207624751
 20
-269.32080078125
 10
307.2715207624751
 20
-253.236328125
 10
307.2715207624751
 20
-253.236328125
 10
307.2715207624751
 20
-251.015625
 10
309.0718137312251
 20
-249.21533203125
 10
311.2925168562251
 20
-249.21533203125
 10
313.5132199812251
 20
-249.21533203125
 10
315.3140012312251
 20
-251.015625
 10
315.3140012312251
 20
-253.236328125
 10
315.3140012312251
 20
-253.236328125
 10
315.3140012312251
 20
-269.32080078125
 10
315.3140012312251
 20
-269.32080078125
 10
315.3140012312251
 20
-271.54150390625
 10
313.5132199812251
 20
-273.341796875
 10
311.2925168562251
 20
-273.341796875
 97
        0
 97
        1
330
B6
 75
     2
 76
     1
 98
        1
 10
0.0
 20
0.0
450
        0
451
        0
460
0.0
461
0.0
452
        0
462
0.0
453
        0
470

  0
INSERT
  5
B9
330
AE
100
AcDbEntity
  8
Layer 2
100
AcDbBlockReference
  2
Block_5
 10
0.0
 20
0.0
 30
0.0
  0
ENDBLK
  5
B1
330
AE
100
AcDbEntity
  8
0
100
AcDbBlockEnd
  0
BLOCK
  5
BA
330
B8
100
AcDbEntity
  8
0
100
AcDbBlockBegin
  2
Block_5
 70
     0
 10
0.0
 20
0.0
 30
0.0
  3
Block_5
  1

  0
SPLINE
  5
BC
330
B8
100
AcDbEntity
  8
Layer 2
100
AcDbSpline
210
0.0
220
0.0
230
1.0
 70
     9
 71
     3
 72
    26
 73
    22
 74
     0
 42
0.0000000001
 43
0.0000000001
 40
0.0
 40
0.0
 40
0.0
 40
0.0
 40
1.0
 40
1.0
 40
1.0
 40
2.0
 40
2.0
 40
2.0
 40
3.0
 40
3.0
 40
3.0
 40
4.0
 40
4.0
 40
4.0
 40
5.0
 40
5.0
 40
5.0
 40
6.0
 40
6.0
 40
6.0
 40
7.0
 40
7.0
 40
7.0
 40
7.0
 10
290.6655637312242
 20
-281.30419921875
 30
0.0
 10
289.6362668562242
 20
-281.30419921875
 30
0.0
 10
288.6074582624742
 20
-280.91162109375
 30
0.0
 10
287.8223020124742
 20
-280.12646484375
 30
0.0
 10
287.8223020124742
 20
-280.12646484375
 30
0.0
 10
276.4492551374742
 20
-268.7529296875
 30
0.0
 10
276.4492551374742
 20
-268.7529296875
 30
0.0
 10
274.8789426374742
 20
-267.1826171875
 30
0.0
 10
274.8789426374742
 20
-264.63671875
 30
0.0
 10
276.4492551374742
 20
-263.06640625
 30
0.0
 10
278.0195676374742
 20
-261.49560546875
 30
0.0
 10
280.5654660749742
 20
-261.49658203125
 30
0.0
 10
282.1357785749742
 20
-263.06640625
 30
0.0
 10
282.1357785749742
 20
-263.06640625
 30
0.0
 10
293.5088254499742
 20
-274.43994140625
 30
0.0
 10
293.5088254499742
 20
-274.43994140625
 30
0.0
 10
295.0791379499742
 20
-276.01025390625
 30
0.0
 10
295.0791379499742
 20
-278.55615234375
 30
0.0
 10
293.5088254499742
 20
-280.12646484375
 30
0.0
 10
292.7236691999742
 20
-280.91162109375
 30
0.0
 10
291.6943723249742
 20
-281.30419921875
 30
0.0
 10
290.6655637312242
 20
-281.30419921875
 30
0.0
  0
HATCH
  5
BD
330
B8
100
AcDbEntity
  8
Layer 2
 62
   250
420
  2301728
440
 33554687
100
AcDbHatch
 10
0.0
 20
0.0
 30
0.0
210
0.0
220
0.0
230
1.0
  2
SOLID
 70
     1
 71
     1
 91
        1
 92
        1
 93
        1
 72
     4
 94
        3
 73
     0
 74
     0
 95
       26
 96
       22
 40
0.0
 40
0.0
 40
0.0
 40
0.0
 40
1.0
 40
1.0
 40
1.0
 40
2.0
 40
2.0
 40
2.0
 40
3.0
 40
3.0
 40
3.0
 40
4.0
 40
4.0
 40
4.0
 40
5.0
 40
5.0
 40
5.0
 40
6.0
 40
6.0
 40
6.0
 40
7.0
 40
7.0
 40
7.0
 40
7.0
 10
290.6655637312242
 20
-281.30419921875
 10
289.6362668562242
 20
-281.30419921875
 10
288.6074582624742
 20
-280.91162109375
 10
287.8223020124742
 20
-280.12646484375
 10
287.8223020124742
 20
-280.12646484375
 10
276.4492551374742
 20
-268.7529296875
 10
276.4492551374742
 20
-268.7529296875
 10
274.8789426374742
 20
-267.1826171875
 10
274.8789426374742
 20
-264.63671875
 10
276.4492551374742
 20
-263.06640625
 10
278.0195676374742
 20
-261.49560546875
 10
280.5654660749742
 20
-261.49658203125
 10
282.1357785749742
 20
-263.06640625
 10
282.1357785749742
 20
-263.06640625
 10
293.5088254499742
 20
-274.43994140625
 10
293.5088254499742
 20
-274.43994140625
 10
295.0791379499742
 20
-276.01025390625
 10
295.0791379499742
 20
-278.55615234375
 10
293.5088254499742
 20
-280.12646484375
 10
292.7236691999742
 20
-280.91162109375
 10
291.6943723249742
 20
-281.30419921875
 10
290.6655637312242
 20
-281.30419921875
 97
        0
 97
        1
330
BC
 75
     2
 76
     1
 98
        1
 10
0.0
 20
0.0
450
        0
451
        0
460
0.0
461
0.0
452
        0
462
0.0
453
        0
470

  0
SPLINE
  5
BE
330
B8
100
AcDbEntity
  8
Layer 2
100
AcDbSpline
210
0.0
220
0.0
230
1.0
 70
    11
 71
     3
 72
    26
 73
    22
 74
     0
 42
0.0000000001
 43
0.0000000001
 40
0.0
 40
0.0
 40
0.0
 40
0.0
 40
1.0
 40
1.0
 40
1.0
 40
2.0
 40
2.0
 40
2.0
 40
3.0
 40
3.0
 40
3.0
 40
4.0
 40
4.0
 40
4.0
 40
5.0
 40
5.0
 40
5.0
 40
6.0
 40
6.0
 40
6.0
 40
7.0
 40
7.0
 40
7.0
 40
7.0
 10
331.9194699812251
 20
-281.30419921875
 30
0.0
 10
330.8901731062251
 20
-281.30419921875
 30
0.0
 10
329.8618527937251
 20
-280.91162109375
 30
0.0
 10
329.0757199812251
 20
-280.12646484375
 30
0.0
 10
327.5054074812251
 20
-278.55615234375
 30
0.0
 10
327.5054074812251
 20
-276.01025390625
 30
0.0
 10
329.0757199812251
 20
-274.43994140625
 30
0.0
 10
329.0757199812251
 20
-274.43994140625
 30
0.0
 10
340.4487668562251
 20
-263.06640625
 30
0.0
 10
340.4487668562251
 20
-263.06640625
 30
0.0
 10
342.0190793562251
 20
-261.49609375
 30
0.0
 10
344.5640012312251
 20
-261.49609375
 30
0.0
 10
346.1362668562251
 20
-263.06640625
 30
0.0
 10
347.7065793562251
 20
-264.63671875
 30
0.0
 10
347.7065793562251
 20
-267.1826171875
 30
0.0
 10
346.1362668562251
 20
-268.7529296875
 30
0.0
 10
346.1362668562251
 20
-268.7529296875
 30
0.0
 10
334.7632199812251
 20
-280.12646484375
 30
0.0
 10
334.7632199812251
 20
-280.12646484375
 30
0.0
 10
333.9780637312251
 20
-280.91162109375
 30
0.0
 10
332.9487668562251
 20
-281.30419921875
 30
0.0
 10
331.9194699812251
 20
-281.30419921875
 30
0.0
  0
HATCH
  5
BF
330
B8
100
AcDbEntity
  8
Layer 2
 62
   250
420
  2301728
440
 33554687
100
AcDbHatch
 10
0.0
 20
0.0
 30
0.0
210
0.0
220
0.0
230
1.0
  2
SOLID
 70
     1
 71
     1
 91
        1
 92
        1
 93
        1
 72
     4
 94
        3
 73
     0
 74
     0
 95
       26
 96
       22
 40
0.0
 40
0.0
 40
0.0
 40
0.0
 40
1.0
 40
1.0
 40
1.0
 40
2.0
 40
2.0
 40
2.0
 40
3.0
 40
3.0
 40
3.0
 40
4.0
 40
4.0
 40
4.0
 40
5.0
 40
5.0
 40
5.0
 40
6.0
 40
6.0
 40
6.0
 40
7.0
 40
7.0
 40
7.0
 40
7.0
 10
331.9194699812251
 20
-281.30419921875
 10
330.8901731062251
 20
-281.30419921875
 10
329.8618527937251
 20
-280.91162109375
 10
329.0757199812251
 20
-280.12646484375
 10
327.5054074812251
 20
-278.55615234375
 10
327.5054074812251
 20
-276.01025390625
 10
329.0757199812251
 20
-274.43994140625
 10
329.0757199812251
 20
-274.43994140625
 10
340.4487668562251
 20
-263.06640625
 10
340.4487668562251
 20
-263.06640625
 10
342.0190793562251
 20
-261.49609375
 10
344.5640012312251
 20
-261.49609375
 10
346.1362668562251
 20
-263.06640625
 10
347.7065793562251
 20
-264.63671875
 10
347.7065793562251
 20
-267.1826171875
 10
346.1362668562251
 20
-268.7529296875
 10
346.1362668562251
 20
-268.7529296875
 10
334.7632199812251
 20
-280.12646484375
 10
334.7632199812251
 20
-280.12646484375
 10
333.9780637312251
 20
-280.91162109375
 10
332.9487668562251
 20
-281.30419921875
 10
331.9194699812251
 20
-281.30419921875
 97
        0
 97
        1
330
BE
 75
     2
 76
     1
 98
        1
 10
0.0
 20
0.0
450
        0
451
        0
460
0.0
461
0.0
452
        0
462
0.0
453
        0
470

  0
ENDBLK
  5
BB
330
B8
100
AcDbEntity
  8
0
100
AcDbBlockEnd
  0
ENDSEC
  0
SECTION
  2
ENTITIES
  0
INSERT
  5
7A
330
70
100
AcDbEntity
  8
Layer 1
100
AcDbBlockReference
  2
Block_0
 10
0.0
 20
0.0
 30
0.0
  0
INSERT
  5
AF
330
70
100
AcDbEntity
  8
Layer 2
100
AcDbBlockReference
  2
Block_4
 10
0.0
 20
0.0
 30
0.0
  0
ENDSEC
  0
SECTION
  2
OBJECTS
  0
DICTIONARY
  5
C
330
0
100
AcDbDictionary
281
     1
  3
ACAD_COLOR
350
63
  3
ACAD_DETAILVIEWSTYLE
350
6A
  3
ACAD_GROUP
350
D
  3
ACAD_LAYOUT
350
62
  3
ACAD_MATERIAL
350
10
  3
ACAD_MLEADERSTYLE
350
66
  3
ACAD_MLINESTYLE
350
5F
  3
ACAD_PLOTSETTINGS
350
61
  3
ACAD_PLOTSTYLENAME
350
E
  3
ACAD_SCALELIST
350
42
  3
ACAD_SECTIONVIEWSTYLE
350
68
  3
ACAD_TABLESTYLE
350
64
  3
ACAD_VISUALSTYLE
350
29
  3
ACDB_RECOMPOSE_DATA
350
C8
  3
AcDbVariableDictionary
350
C0
  0
DICTIONARY
  5
63
102
{ACAD_REACTORS
330
C
102
}
330
C
100
AcDbDictionary
281
     1
  0
DICTIONARY
  5
6A
102
{ACAD_REACTORS
330
C
102
}
330
C
100
AcDbDictionary
281
     1
  3
Imperial24
350
6B
  0
DICTIONARY
  5
D
102
{ACAD_REACTORS
330
C
102
}
330
C
100
AcDbDictionary
281
     1
  0
DICTIONARY
  5
62
102
{ACAD_REACTORS
330
C
102
}
330
C
100
AcDbDictionary
281
     1
  3
Layout1
350
6F
  3
Layout2
350
77
  3
Model
350
73
  0
DICTIONARY
  5
10
102
{ACAD_REACTORS
330
C
102
}
330
C
100
AcDbDictionary
281
     1
  3
ByBlock
350
19
  3
ByLayer
350
11
  3
Global
350
21
  0
DICTIONARY
  5
66
102
{ACAD_REACTORS
330
C
102
}
330
C
100
AcDbDictionary
281
     1
  3
Standard
350
67
  0
DICTIONARY
  5
5F
102
{ACAD_REACTORS
330
C
102
}
330
C
100
AcDbDictionary
281
     1
  3
Standard
350
60
  0
DICTIONARY
  5
61
102
{ACAD_REACTORS
330
C
102
}
330
C
100
AcDbDictionary
281
     1
  0
ACDBDICTIONARYWDFLT
  5
E
102
{ACAD_REACTORS
330
C
102
}
330
C
100
AcDbDictionary
281
     1
  3
Normal
350
F
100
AcDbDictionaryWithDefault
340
F
  0
DICTIONARY
  5
42
102
{ACAD_REACTORS
330
C
102
}
330
C
100
AcDbDictionary
281
     1
  3
A0
350
43
  3
A1
350
44
  3
A2
350
45
  3
A3
350
46
  3
A4
350
47
  3
A5
350
48
  3
A6
350
49
  3
A7
350
4A
  3
A8
350
4B
  3
A9
350
4C
  3
B0
350
4D
  3
B1
350
4E
  3
B2
350
4F
  3
B3
350
50
  3
B4
350
51
  3
B5
350
52
  3
B6
350
53
  0
DICTIONARY
  5
68
102
{ACAD_REACTORS
330
C
102
}
330
C
100
AcDbDictionary
281
     1
  3
Imperial24
350
69
  0
DICTIONARY
  5
64
102
{ACAD_REACTORS
330
C
102
}
330
C
100
AcDbDictionary
281
     1
  3
Standard
350
65
  0
DICTIONARY
  5
29
102
{ACAD_REACTORS
330
C
102
}
330
C
100
AcDbDictionary
281
     1
  3
2dWireframe
350
2F
  3
Basic
350
2E
  3
Brighten
350
35
  3
ColorChange
350
39
  3
Conceptual
350
32
  3
Dim
350
34
  3
EdgeColorOff
350
41
  3
Facepattern
350
38
  3
Flat
350
2A
  3
FlatWithEdges
350
2B
  3
Gouraud
350
2C
  3
GouraudWithEdges
350
2D
  3
Hidden
350
31
  3
JitterOff
350
3F
  3
Linepattern
350
37
  3
OverhangOff
350
40
  3
Realistic
350
33
  3
Shaded
350
3E
  3
Shaded with edges
350
3D
  3
Shades of Gray
350
3A
  3
Sketchy
350
3B
  3
Thicken
350
36
  3
Wireframe
350
30
  3
X-Ray
350
3C
  0
XRECORD
  5
C8
102
{ACAD_REACTORS
330
C
102
}
330
C
100
AcDbXrecord
280
     1
 90
        1
330
65
  0
DICTIONARY
  5
C0
102
{ACAD_REACTORS
330
C
102
}
330
C
100
AcDbDictionary
281
     1
  3
CANNOSCALE
350
C5
  3
CMLEADERSTYLE
350
C2
  3
CTABLESTYLE
350
C1
  3
CVIEWDETAILSTYLE
350
C3
  3
CVIEWSECTIONSTYLE
350
C4
  0
ACDBDETAILVIEWSTYLE
  5
6B
102
{ACAD_XDICTIONARY
360
FD
102
}
102
{ACAD_REACTORS
330
6A
102
}
330
6A
100
AcDbModelDocViewStyle
 70
     0
  3
Imperial24
290
     0
100
AcDbDetailViewStyle
 70
     0
 71
     0
 90
        3
 71
     1
340
55
 62
   256
 40
0.24
340
0
 62
   256
 40
0.24
300

 40
0.36
280
     3
 71
     2
340
5D
 90
       25
 62
   256
 71
     3
340
55
 62
   256
 40
0.24
 90
        1
 40
0.75
 90
        1
300
%<\AcVar ViewType \f "%tc1">% %<\AcVar ViewDetailId>%\PSCALE %<\AcVar ViewScale \f "%sn">%
 71
     4
340
5D
 90
       25
 62
   256
340
5D
 90
       25
 62
   256
280
     0
  0
LAYOUT
  5
6F
102
{ACAD_REACTORS
330
62
102
}
330
62
100
AcDbPlotSettings
  1

  2

  4

  6

 40
0.0
 41
0.0
 42
0.0
 43
0.0
 44
0.0
 45
0.0
 46
0.0
 47
0.0
 48
0.0
 49
0.0
140
0.0
141
0.0
142
1.0
143
1.0
 70
   688
 72
     0
 73
     0
 74
     5
  7

 75
    16
147
1.0
 76
     0
 77
     2
 78
   300
148
0.0
149
0.0
100
AcDbLayout
  1
Layout1
 70
     1
 71
     1
 10
0.0
 20
0.0
 11
12.0
 21
9.0
 12
0.0
 22
0.0
 32
0.0
 14
0.0
 24
0.0
 34
0.0
 15
0.0
 25
0.0
 35
0.0
146
0.0
 13
0.0
 23
0.0
 33
0.0
 16
1.0
 26
0.0
 36
0.0
 17
0.0
 27
1.0
 37
0.0
 76
     0
330
6C
  0
LAYOUT
  5
77
102
{ACAD_REACTORS
330
62
102
}
330
62
100
AcDbPlotSettings
  1

  2

  4

  6

 40
0.0
 41
0.0
 42
0.0
 43
0.0
 44
0.0
 45
0.0
 46
0.0
 47
0.0
 48
0.0
 49
0.0
140
0.0
141
0.0
142
1.0
143
1.0
 70
   688
 72
     0
 73
     0
 74
     5
  7

 75
    16
147
1.0
 76
     0
 77
     2
 78
   300
148
0.0
149
0.0
100
AcDbLayout
  1
Layout2
 70
     1
 71
     2
 10
0.0
 20
0.0
 11
12.0
 21
9.0
 12
0.0
 22
0.0
 32
0.0
 14
0.0
 24
0.0
 34
0.0
 15
0.0
 25
0.0
 35
0.0
146
0.0
 13
0.0
 23
0.0
 33
0.0
 16
1.0
 26
0.0
 36
0.0
 17
0.0
 27
1.0
 37
0.0
 76
     0
330
74
  0
LAYOUT
  5
73
102
{ACAD_REACTORS
330
62
102
}
330
62
100
AcDbPlotSettings
  1

  2

  4

  6

 40
0.0
 41
0.0
 42
0.0
 43
0.0
 44
0.0
 45
0.0
 46
0.0
 47
0.0
 48
0.0
 49
0.0
140
0.0
141
0.0
142
1.0
143
1.0
 70
  1712
 72
     0
 73
     0
 74
     0
  7

 75
     0
147
1.0
 76
     0
 77
     2
 78
   300
148
0.0
149
0.0
100
AcDbLayout
  1
Model
 70
     1
 71
     0
 10
0.0
 20
0.0
 11
12.0
 21
9.0
 12
0.0
 22
0.0
 32
0.0
 14
0.0
 24
0.0
 34
0.0
 15
0.0
 25
0.0
 35
0.0
146
0.0
 13
0.0
 23
0.0
 33
0.0
 16
1.0
 26
0.0
 36
0.0
 17
0.0
 27
1.0
 37
0.0
 76
     0
330
70
  0
MATERIAL
  5
19
102
{ACAD_XDICTIONARY
360
1A
102
}
102
{ACAD_REACTORS
330
10
102
}
330
10
100
AcDbMaterial
  1
ByBlock
 72
     0
 43
0.0208333333333333
 43
0.0
 43
0.0
 43
0.0
 43
0.0
 43
0.0208333333333333
 43
0.0
 43
0.0
 43
0.0
 43
0.0
 43
1.0
 43
0.0
 43
0.0
 43
0.0
 43
0.0
 43
1.0
 77
     0
 47
0.0208333333333333
 47
0.0
 47
0.0
 47
0.0
 47
0.0
 47
0.0208333333333333
 47
0.0
 47
0.0
 47
0.0
 47
0.0
 47
1.0
 47
0.0
 47
0.0
 47
0.0
 47
0.0
 47
1.0
171
     0
 49
0.0208333333333333
 49
0.0
 49
0.0
 49
0.0
 49
0.0
 49
0.0208333333333333
 49
0.0
 49
0.0
 49
0.0
 49
0.0
 49
1.0
 49
0.0
 49
0.0
 49
0.0
 49
0.0
 49
1.0
175
     0
142
0.0208333333333333
142
0.0
142
0.0
142
0.0
142
0.0
142
0.0208333333333333
142
0.0
142
0.0
142
0.0
142
0.0
142
1.0
142
0.0
142
0.0
142
0.0
142
0.0
142
1.0
179
     0
144
0.0208333333333333
144
0.0
144
0.0
144
0.0
144
0.0
144
0.0208333333333333
144
0.0
144
0.0
144
0.0
144
0.0
144
1.0
144
0.0
144
0.0
144
0.0
144
0.0
144
1.0
147
0.0208333333333333
147
0.0
147
0.0
147
0.0
147
0.0
147
0.0208333333333333
147
0.0
147
0.0
147
0.0
147
0.0
147
1.0
147
0.0
147
0.0
147
0.0
147
0.0
147
1.0
  0
MATERIAL
  5
11
102
{ACAD_XDICTIONARY
360
12
102
}
102
{ACAD_REACTORS
330
10
102
}
330
10
100
AcDbMaterial
  1
ByLayer
 72
     0
 43
0.0208333333333333
 43
0.0
 43
0.0
 43
0.0
 43
0.0
 43
0.0208333333333333
 43
0.0
 43
0.0
 43
0.0
 43
0.0
 43
1.0
 43
0.0
 43
0.0
 43
0.0
 43
0.0
 43
1.0
 77
     0
 47
0.0208333333333333
 47
0.0
 47
0.0
 47
0.0
 47
0.0
 47
0.0208333333333333
 47
0.0
 47
0.0
 47
0.0
 47
0.0
 47
1.0
 47
0.0
 47
0.0
 47
0.0
 47
0.0
 47
1.0
171
     0
 49
0.0208333333333333
 49
0.0
 49
0.0
 49
0.0
 49
0.0
 49
0.0208333333333333
 49
0.0
 49
0.0
 49
0.0
 49
0.0
 49
1.0
 49
0.0
 49
0.0
 49
0.0
 49
0.0
 49
1.0
175
     0
142
0.0208333333333333
142
0.0
142
0.0
142
0.0
142
0.0
142
0.0208333333333333
142
0.0
142
0.0
142
0.0
142
0.0
142
1.0
142
0.0
142
0.0
142
0.0
142
0.0
142
1.0
179
     0
144
0.0208333333333333
144
0.0
144
0.0
144
0.0
144
0.0
144
0.0208333333333333
144
0.0
144
0.0
144
0.0
144
0.0
144
1.0
144
0.0
144
0.0
144
0.0
144
0.0
144
1.0
147
0.0208333333333333
147
0.0
147
0.0
147
0.0
147
0.0
147
0.0208333333333333
147
0.0
147
0.0
147
0.0
147
0.0
147
1.0
147
0.0
147
0.0
147
0.0
147
0.0
147
1.0
  0
MATERIAL
  5
21
102
{ACAD_XDICTIONARY
360
22
102
}
102
{ACAD_REACTORS
330
10
102
}
330
10
100
AcDbMaterial
  1
Global
 72
     0
 43
0.0208333333333333
 43
0.0
 43
0.0
 43
0.0
 43
0.0
 43
0.0208333333333333
 43
0.0
 43
0.0
 43
0.0
 43
0.0
 43
1.0
 43
0.0
 43
0.0
 43
0.0
 43
0.0
 43
1.0
 77
     0
 47
0.0208333333333333
 47
0.0
 47
0.0
 47
0.0
 47
0.0
 47
0.0208333333333333
 47
0.0
 47
0.0
 47
0.0
 47
0.0
 47
1.0
 47
0.0
 47
0.0
 47
0.0
 47
0.0
 47
1.0
171
     0
 49
0.0208333333333333
 49
0.0
 49
0.0
 49
0.0
 49
0.0
 49
0.0208333333333333
 49
0.0
 49
0.0
 49
0.0
 49
0.0
 49
1.0
 49
0.0
 49
0.0
 49
0.0
 49
0.0
 49
1.0
175
     0
142
0.0208333333333333
142
0.0
142
0.0
142
0.0
142
0.0
142
0.0208333333333333
142
0.0
142
0.0
142
0.0
142
0.0
142
1.0
142
0.0
142
0.0
142
0.0
142
0.0
142
1.0
179
     0
144
0.0208333333333333
144
0.0
144
0.0
144
0.0
144
0.0
144
0.0208333333333333
144
0.0
144
0.0
144
0.0
144
0.0
144
1.0
144
0.0
144
0.0
144
0.0
144
0.0
144
1.0
147
0.0208333333333333
147
0.0
147
0.0
147
0.0
147
0.0
147
0.0208333333333333
147
0.0
147
0.0
147
0.0
147
0.0
147
1.0
147
0.0
147
0.0
147
0.0
147
0.0
147
1.0
  0
MLEADERSTYLE
  5
67
102
{ACAD_XDICTIONARY
360
F9
102
}
102
{ACAD_REACTORS
330
66
102
}
330
66
100
AcDbMLeaderStyle
179
     2
170
     2
171
     1
172
     0
 90
        2
 40
0.0
 41
0.0
173
     1
 91
-1056964608
340
5B
 92
       -2
290
     1
 42
0.09
291
     1
 43
0.36
  3
Standard
 44
0.18
300

342
55
174
     1
178
     6
175
     1
176
     0
 93
-1056964608
 45
0.18
292
     0
297
     0
 46
0.18
 94
-1056964608
 47
1.0
 49
1.0
140
1.0
293
     1
141
0.0
294
     1
177
     0
142
1.0
295
     0
296
     0
143
0.125
271
     0
272
     9
273
     9
  0
MLINESTYLE
  5
60
102
{ACAD_REACTORS
330
5F
102
}
330
5F
100
AcDbMlineStyle
  2
STANDARD
 70
     0
  3

 62
   256
 51
90.0
 52
90.0
 71
     2
 49
0.5
 62
   256
  6
BYLAYER
 49
-0.5
 62
   256
  6
BYLAYER
  0
ACDBPLACEHOLDER
  5
F
102
{ACAD_REACTORS
330
E
102
}
330
E
  0
SCALE
  5
43
102
{ACAD_REACTORS
330
42
102
}
330
42
100
AcDbScale
 70
     0
300
1:1
140
1.0
141
1.0
290
     1
  0
SCALE
  5
44
102
{ACAD_REACTORS
330
42
102
}
330
42
100
AcDbScale
 70
     0
300
1/128" = 1'-0"
140
0.0078125
141
12.0
290
     0
  0
SCALE
  5
45
102
{ACAD_REACTORS
330
42
102
}
330
42
100
AcDbScale
 70
     0
300
1/64" = 1'-0"
140
0.015625
141
12.0
290
     0
  0
SCALE
  5
46
102
{ACAD_REACTORS
330
42
102
}
330
42
100
AcDbScale
 70
     0
300
1/32" = 1'-0"
140
0.03125
141
12.0
290
     0
  0
SCALE
  5
47
102
{ACAD_REACTORS
330
42
102
}
330
42
100
AcDbScale
 70
     0
300
1/16" = 1'-0"
140
0.0625
141
12.0
290
     0
  0
SCALE
  5
48
102
{ACAD_REACTORS
330
42
102
}
330
42
100
AcDbScale
 70
     0
300
3/32" = 1'-0"
140
0.09375
141
12.0
290
     0
  0
SCALE
  5
49
102
{ACAD_REACTORS
330
42
102
}
330
42
100
AcDbScale
 70
     0
300
1/8" = 1'-0"
140
0.125
141
12.0
290
     0
  0
SCALE
  5
4A
102
{ACAD_REACTORS
330
42
102
}
330
42
100
AcDbScale
 70
     0
300
3/16" = 1'-0"
140
0.1875
141
12.0
290
     0
  0
SCALE
  5
4B
102
{ACAD_REACTORS
330
42
102
}
330
42
100
AcDbScale
 70
     0
300
1/4" = 1'-0"
140
0.25
141
12.0
290
     0
  0
SCALE
  5
4C
102
{ACAD_REACTORS
330
42
102
}
330
42
100
AcDbScale
 70
     0
300
3/8" = 1'-0"
140
0.375
141
12.0
290
     0
  0
SCALE
  5
4D
102
{ACAD_REACTORS
330
42
102
}
330
42
100
AcDbScale
 70
     0
300
1/2" = 1'-0"
140
0.5
141
12.0
290
     0
  0
SCALE
  5
4E
102
{ACAD_REACTORS
330
42
102
}
330
42
100
AcDbScale
 70
     0
300
3/4" = 1'-0"
140
0.75
141
12.0
290
     0
  0
SCALE
  5
4F
102
{ACAD_REACTORS
330
42
102
}
330
42
100
AcDbScale
 70
     0
300
1" = 1'-0"
140
1.0
141
12.0
290
     0
  0
SCALE
  5
50
102
{ACAD_REACTORS
330
42
102
}
330
42
100
AcDbScale
 70
     0
300
1-1/2" = 1'-0"
140
1.5
141
12.0
290
     0
  0
SCALE
  5
51
102
{ACAD_REACTORS
330
42
102
}
330
42
100
AcDbScale
 70
     0
300
3" = 1'-0"
140
3.0
141
12.0
290
     0
  0
SCALE
  5
52
102
{ACAD_REACTORS
330
42
102
}
330
42
100
AcDbScale
 70
     0
300
6" = 1'-0"
140
6.0
141
12.0
290
     0
  0
SCALE
  5
53
102
{ACAD_REACTORS
330
42
102
}
330
42
100
AcDbScale
 70
     0
300
1'-0" = 1'-0"
140
12.0
141
12.0
290
     0
  0
ACDBSECTIONVIEWSTYLE
  5
69
102
{ACAD_XDICTIONARY
360
FB
102
}
102
{ACAD_REACTORS
330
68
102
}
330
68
100
AcDbModelDocViewStyle
 70
     0
  3
Imperial24
290
     0
100
AcDbSectionViewStyle
 70
     0
 71
     0
 90
       78
 71
     1
340
55
 62
   256
 40
0.24
340
0
340
0
 62
   256
 40
0.24
300
I, O, Q, S, X, Z
 40
0.48
 90
        3
 40
0.18
 90
        1
 71
     2
340
5D
 90
       25
 62
   256
340
5D
 90
       50
 62
   256
 40
0.24
 40
0.0
 40
0.24
 71
     3
340
55
 62
   256
 40
0.24
 90
        1
 40
0.75
 90
        1
300
%<\AcVar ViewType \f "%tc1">% %<\AcVar ViewSectionStartId>%-%<\AcVar ViewSectionEndId>%\PSCALE %<\AcVar ViewScale \f "%sn">%
 71
     4
 62
   256
 62
   257
300
ANSI31
 40
1.0
 90
        0
290
     0
290
     0
 90
        6
 40
0.0
 40
1.570796326794896
 40
0.2617993877991494
 40
1.308996938995747
 40
-0.2617993877991494
 40
1.832595714594046
  0
TABLESTYLE
  5
65
102
{ACAD_XDICTIONARY
360
C6
102
}
102
{ACAD_REACTORS
330
64
102
}
330
64
100
AcDbTableStyle
280
     0
  3
Standard
 70
     0
 71
     0
 40
0.06
 41
0.06
280
     0
281
     0
  7
Standard
140
0.18
170
     2
 62
     0
 63
     7
283
     0
 90
      512
 91
        0
  1

274
    -2
284
     1
 64
     0
275
    -2
285
     1
 65
     0
276
    -2
286
     1
 66
     0
277
    -2
287
     1
 67
     0
278
    -2
288
     1
 68
     0
279
    -2
289
     1
 69
     0
  7
Standard
140
0.25
170
     5
 62
     0
 63
     7
283
     0
 90
      512
 91
        0
  1

274
    -2
284
     1
 64
     0
275
    -2
285
     1
 65
     0
276
    -2
286
     1
 66
     0
277
    -2
287
     1
 67
     0
278
    -2
288
     1
 68
     0
279
    -2
289
     1
 69
     0
  7
Standard
140
0.18
170
     5
 62
     0
 63
     7
283
     0
 90
      512
 91
        0
  1

274
    -2
284
     1
 64
     0
275
    -2
285
     1
 65
     0
276
    -2
286
     1
 66
     0
277
    -2
287
     1
 67
     0
278
    -2
288
     1
 68
     0
279
    -2
289
     1
 69
     0
  0
VISUALSTYLE
  5
2F
102
{ACAD_XDICTIONARY
360
D3
102
}
102
{ACAD_REACTORS
330
29
102
}
330
29
100
AcDbVisualStyle
  2
2dWireframe
 70
     4
177
     2
291
     0
 71
     0
176
     1
 72
     2
176
     1
 73
     0
176
     1
 90
        0
176
     1
 40
0.6
176
     1
 41
30.0
176
     1
 63
     7
421
 16777215
176
     1
 74
     1
176
     1
 91
        4
176
     1
 64
     7
176
     1
 65
   257
176
     1
 75
     1
176
     1
175
     1
176
     1
 42
1.0
176
     1
 92
        0
176
     1
 66
   257
176
     1
 43
1.0
176
     1
 76
     1
176
     1
 77
     6
176
     1
 78
     2
176
     1
 67
     7
176
     1
 79
     5
176
     1
170
     0
176
     1
171
     0
176
     1
290
     0
176
     1
 93
        1
176
     1
 44
0.0
176
     1
173
     0
176
     1
1001
ACAD
1000
AcDbSavedByObjectVersion
1070
     0
  0
VISUALSTYLE
  5
2E
102
{ACAD_XDICTIONARY
360
D1
102
}
102
{ACAD_REACTORS
330
29
102
}
330
29
100
AcDbVisualStyle
  2
Basic
 70
     7
177
     2
291
     1
 71
     1
176
     1
 72
     0
176
     1
 73
     1
176
     1
 90
        0
176
     1
 40
0.6
176
     1
 41
30.0
176
     1
 63
     7
421
 16777215
176
     1
 74
     0
176
     1
 91
        4
176
     1
 64
     7
176
     1
 65
   257
176
     1
 75
     1
176
     1
175
     1
176
     1
 42
1.0
176
     1
 92
        8
176
     1
 66
     7
176
     1
 43
1.0
176
     1
 76
     1
176
     1
 77
     6
176
     1
 78
     2
176
     1
 67
     7
176
     1
 79
     5
176
     1
170
     0
176
     1
171
     0
176
     1
290
     0
176
     1
 93
        1
176
     1
 44
0.0
176
     1
173
     0
176
     1
1001
ACAD
1000
AcDbSavedByObjectVersion
1070
     0
  0
VISUALSTYLE
  5
35
102
{ACAD_XDICTIONARY
360
DF
102
}
102
{ACAD_REACTORS
330
29
102
}
330
29
100
AcDbVisualStyle
  2
Brighten
 70
    12
177
     2
291
     1
 71
     2
176
     1
 72
     2
176
     1
 73
     0
176
     1
 90
        0
176
     1
 40
0.6
176
     1
 41
30.0
176
     1
 63
     7
421
 16777215
176
     1
 74
     1
176
     1
 91
        4
176
     1
 64
     7
176
     1
 65
   257
176
     1
 75
     1
176
     1
175
     1
176
     1
 42
1.0
176
     1
 92
        8
176
     1
 66
     7
176
     1
 43
1.0
176
     1
 76
     1
176
     1
 77
     6
176
     1
 78
     2
176
     1
 67
     7
176
     1
 79
     5
176
     1
170
     0
176
     1
171
     0
176
     1
290
     0
176
     1
 93
        1
176
     1
 44
50.0
176
     1
173
     0
176
     1
1001
ACAD
1000
AcDbSavedByObjectVersion
1070
     0
  0
VISUALSTYLE
  5
39
102
{ACAD_XDICTIONARY
360
E7
102
}
102
{ACAD_REACTORS
330
29
102
}
330
29
100
AcDbVisualStyle
  2
ColorChange
 70
    16
177
     2
291
     1
 71
     2
176
     1
 72
     2
176
     1
 73
     3
176
     1
 90
        0
176
     1
 40
0.6
176
     1
 41
30.0
176
     1
 63
     8
421
  8421504
176
     1
 74
     1
176
     1
 91
        4
176
     1
 64
     7
176
     1
 65
   257
176
     1
 75
     1
176
     1
175
     1
176
     1
 42
1.0
176
     1
 92
        8
176
     1
 66
     8
424
  8421504
176
     1
 43
1.0
176
     1
 76
     1
176
     1
 77
     6
176
     1
 78
     2
176
     1
 67
     7
176
     1
 79
     5
176
     1
170
     0
176
     1
171
     0
176
     1
290
     0
176
     1
 93
        1
176
     1
 44
0.0
176
     1
173
     0
176
     1
1001
ACAD
1000
AcDbSavedByObjectVersion
1070
     0
  0
VISUALSTYLE
  5
32
102
{ACAD_XDICTIONARY
360
D9
102
}
102
{ACAD_REACTORS
330
29
102
}
330
29
100
AcDbVisualStyle
  2
Conceptual
 70
     9
177
     2
291
     0
 71
     3
176
     1
 72
     2
176
     1
 73
     0
176
     1
 90
        0
176
     1
 40
0.6
176
     1
 41
30.0
176
     1
 63
     7
421
 16777215
176
     1
 74
     2
176
     1
 91
        2
176
     1
 64
     7
176
     1
 65
   257
176
     1
 75
     1
176
     1
175
     1
176
     1
 42
179.0
176
     1
 92
        8
176
     1
 66
     7
176
     1
 43
1.0
176
     1
 76
     1
176
     1
 77
     6
176
     1
 78
     2
176
     1
 67
     7
176
     1
 79
     3
176
     1
170
     0
176
     1
171
     0
176
     1
290
     0
176
     1
 93
        1
176
     1
 44
0.0
176
     1
173
     0
176
     1
1001
ACAD
1000
AcDbSavedByObjectVersion
1070
     0
  0
VISUALSTYLE
  5
34
102
{ACAD_XDICTIONARY
360
DD
102
}
102
{ACAD_REACTORS
330
29
102
}
330
29
100
AcDbVisualStyle
  2
Dim
 70
    11
177
     2
291
     1
 71
     2
176
     1
 72
     2
176
     1
 73
     0
176
     1
 90
        0
176
     1
 40
0.6
176
     1
 41
30.0
176
     1
 63
     7
421
 16777215
176
     1
 74
     1
176
     1
 91
        4
176
     1
 64
     7
176
     1
 65
   257
176
     1
 75
     1
176
     1
175
     1
176
     1
 42
1.0
176
     1
 92
        8
176
     1
 66
     7
176
     1
 43
1.0
176
     1
 76
     1
176
     1
 77
     6
176
     1
 78
     2
176
     1
 67
     7
176
     1
 79
     5
176
     1
170
     0
176
     1
171
     0
176
     1
290
     0
176
     1
 93
        1
176
     1
 44
-50.0
176
     1
173
     0
176
     1
1001
ACAD
1000
AcDbSavedByObjectVersion
1070
     0
  0
VISUALSTYLE
  5
41
102
{ACAD_XDICTIONARY
360
F7
102
}
102
{ACAD_REACTORS
330
29
102
}
330
29
100
AcDbVisualStyle
  2
EdgeColorOff
 70
    22
177
     2
291
     1
 71
     2
176
     0
 72
     2
176
     0
 73
     0
176
     0
 90
        0
176
     0
 40
0.6
176
     0
 41
30.0
176
     0
 63
     7
421
 16777215
176
     0
 74
     1
176
     0
 91
        4
176
     0
 64
     7
176
     0
 65
   257
176
     0
 75
     1
176
     0
175
     1
176
     0
 42
1.0
176
     0
 92
        8
176
     2
 66
     7
176
     0
 43
1.0
176
     0
 76
     1
176
     0
 77
     6
176
     0
 78
     2
176
     0
 67
     7
176
     0
 79
     5
176
     0
170
     0
176
     0
171
     0
176
     0
290
     0
176
     0
 93
        1
176
     0
 44
0.0
176
     0
173
     0
176
     0
1001
ACAD
1000
AcDbSavedByObjectVersion
1070
     0
  0
VISUALSTYLE
  5
38
102
{ACAD_XDICTIONARY
360
E5
102
}
102
{ACAD_REACTORS
330
29
102
}
330
29
100
AcDbVisualStyle
  2
Facepattern
 70
    15
177
     2
291
     1
 71
     2
176
     1
 72
     2
176
     1
 73
     0
176
     1
 90
        0
176
     1
 40
0.6
176
     1
 41
30.0
176
     1
 63
     7
421
 16777215
176
     1
 74
     1
176
     1
 91
        4
176
     1
 64
     7
176
     1
 65
   257
176
     1
 75
     1
176
     1
175
     1
176
     1
 42
1.0
176
     1
 92
        8
176
     1
 66
     7
176
     1
 43
1.0
176
     1
 76
     1
176
     1
 77
     6
176
     1
 78
     2
176
     1
 67
     7
176
     1
 79
     5
176
     1
170
     0
176
     1
171
     0
176
     1
290
     0
176
     1
 93
        1
176
     1
 44
0.0
176
     1
173
     0
176
     1
1001
ACAD
1000
AcDbSavedByObjectVersion
1070
     0
  0
VISUALSTYLE
  5
2A
102
{ACAD_XDICTIONARY
360
C9
102
}
102
{ACAD_REACTORS
330
29
102
}
330
29
100
AcDbVisualStyle
  2
Flat
 70
     0
177
     2
291
     1
 71
     2
176
     1
 72
     1
176
     1
 73
     1
176
     1
 90
        2
176
     1
 40
0.6
176
     1
 41
30.0
176
     1
 63
     7
421
 16777215
176
     1
 74
     0
176
     1
 91
        0
176
     1
 64
     7
176
     1
 65
   257
176
     1
 75
     1
176
     1
175
     1
176
     1
 42
1.0
176
     1
 92
        8
176
     1
 66
     7
176
     1
 43
1.0
176
     1
 76
     1
176
     1
 77
     6
176
     1
 78
     2
176
     1
 67
     7
176
     1
 79
     5
176
     1
170
     0
176
     1
171
     0
176
     1
290
     0
176
     1
 93
       13
176
     1
 44
0.0
176
     1
173
     0
176
     1
1001
ACAD
1000
AcDbSavedByObjectVersion
1070
     0
  0
VISUALSTYLE
  5
2B
102
{ACAD_XDICTIONARY
360
CB
102
}
102
{ACAD_REACTORS
330
29
102
}
330
29
100
AcDbVisualStyle
  2
FlatWithEdges
 70
     1
177
     2
291
     1
 71
     2
176
     1
 72
     1
176
     1
 73
     1
176
     1
 90
        2
176
     1
 40
0.6
176
     1
 41
30.0
176
     1
 63
     7
421
 16777215
176
     1
 74
     1
176
     1
 91
        0
176
     1
 64
     7
176
     1
 65
   257
176
     1
 75
     1
176
     1
175
     1
176
     1
 42
1.0
176
     1
 92
        0
176
     1
 66
   257
176
     1
 43
1.0
176
     1
 76
     1
176
     1
 77
     6
176
     1
 78
     2
176
     1
 67
     7
176
     1
 79
     5
176
     1
170
     0
176
     1
171
     0
176
     1
290
     0
176
     1
 93
       13
176
     1
 44
0.0
176
     1
173
     0
176
     1
1001
ACAD
1000
AcDbSavedByObjectVersion
1070
     0
  0
VISUALSTYLE
  5
2C
102
{ACAD_XDICTIONARY
360
CD
102
}
102
{ACAD_REACTORS
330
29
102
}
330
29
100
AcDbVisualStyle
  2
Gouraud
 70
     2
177
     2
291
     1
 71
     2
176
     1
 72
     2
176
     1
 73
     1
176
     1
 90
        2
176
     1
 40
0.6
176
     1
 41
30.0
176
     1
 63
     7
421
 16777215
176
     1
 74
     0
176
     1
 91
        0
176
     1
 64
     7
176
     1
 65
   257
176
     1
 75
     1
176
     1
175
     1
176
     1
 42
1.0
176
     1
 92
        0
176
     1
 66
     7
176
     1
 43
1.0
176
     1
 76
     1
176
     1
 77
     6
176
     1
 78
     2
176
     1
 67
     7
176
     1
 79
     5
176
     1
170
     0
176
     1
171
     0
176
     1
290
     0
176
     1
 93
       13
176
     1
 44
0.0
176
     1
173
     0
176
     1
1001
ACAD
1000
AcDbSavedByObjectVersion
1070
     0
  0
VISUALSTYLE
  5
2D
102
{ACAD_XDICTIONARY
360
CF
102
}
102
{ACAD_REACTORS
330
29
102
}
330
29
100
AcDbVisualStyle
  2
GouraudWithEdges
 70
     3
177
     2
291
     1
 71
     2
176
     1
 72
     2
176
     1
 73
     1
176
     1
 90
        2
176
     1
 40
0.6
176
     1
 41
30.0
176
     1
 63
     7
421
 16777215
176
     1
 74
     1
176
     1
 91
        0
176
     1
 64
     7
176
     1
 65
   257
176
     1
 75
     1
176
     1
175
     1
176
     1
 42
1.0
176
     1
 92
        0
176
     1
 66
   257
176
     1
 43
1.0
176
     1
 76
     1
176
     1
 77
     6
176
     1
 78
     2
176
     1
 67
     7
176
     1
 79
     5
176
     1
170
     0
176
     1
171
     0
176
     1
290
     0
176
     1
 93
       13
176
     1
 44
0.0
176
     1
173
     0
176
     1
1001
ACAD
1000
AcDbSavedByObjectVersion
1070
     0
  0
VISUALSTYLE
  5
31
102
{ACAD_XDICTIONARY
360
D7
102
}
102
{ACAD_REACTORS
330
29
102
}
330
29
100
AcDbVisualStyle
  2
Hidden
 70
     6
177
     2
291
     0
 71
     1
176
     1
 72
     2
176
     1
 73
     2
176
     1
 90
        0
176
     1
 40
0.6
176
     1
 41
30.0
176
     1
 63
     7
421
 16777215
176
     1
 74
     2
176
     1
 91
        2
176
     1
 64
     7
176
     1
 65
   257
176
     1
 75
     2
176
     1
175
     1
176
     1
 42
40.0
176
     1
 92
        0
176
     1
 66
   257
176
     1
 43
1.0
176
     1
 76
     1
176
     1
 77
     6
176
     1
 78
     2
176
     1
 67
     7
176
     1
 79
     3
176
     1
170
     0
176
     1
171
     0
176
     1
290
     0
176
     1
 93
        1
176
     1
 44
0.0
176
     1
173
     0
176
     1
1001
ACAD
1000
AcDbSavedByObjectVersion
1070
     0
  0
VISUALSTYLE
  5
3F
102
{ACAD_XDICTIONARY
360
F3
102
}
102
{ACAD_REACTORS
330
29
102
}
330
29
100
AcDbVisualStyle
  2
JitterOff
 70
    20
177
     2
291
     1
 71
     2
176
     0
 72
     2
176
     0
 73
     0
176
     0
 90
        0
176
     0
 40
0.6
176
     0
 41
30.0
176
     0
 63
     7
421
 16777215
176
     0
 74
     1
176
     0
 91
        4
176
     0
 64
     7
176
     0
 65
   257
176
     0
 75
     1
176
     0
175
     1
176
     0
 42
1.0
176
     0
 92
       10
176
     2
 66
     7
176
     0
 43
1.0
176
     0
 76
     1
176
     0
 77
     6
176
     0
 78
     2
176
     0
 67
     7
176
     0
 79
     5
176
     0
170
     0
176
     0
171
     0
176
     0
290
     0
176
     0
 93
        1
176
     0
 44
0.0
176
     0
173
     0
176
     0
1001
ACAD
1000
AcDbSavedByObjectVersion
1070
     0
  0
VISUALSTYLE
  5
37
102
{ACAD_XDICTIONARY
360
E3
102
}
102
{ACAD_REACTORS
330
29
102
}
330
29
100
AcDbVisualStyle
  2
Linepattern
 70
    14
177
     2
291
     1
 71
     2
176
     1
 72
     2
176
     1
 73
     0
176
     1
 90
        0
176
     1
 40
0.6
176
     1
 41
30.0
176
     1
 63
     7
421
 16777215
176
     1
 74
     1
176
     1
 91
        4
176
     1
 64
     7
176
     1
 65
   257
176
     1
 75
     7
176
     1
175
     7
176
     1
 42
1.0
176
     1
 92
        8
176
     1
 66
     7
176
     1
 43
1.0
176
     1
 76
     1
176
     1
 77
     6
176
     1
 78
     2
176
     1
 67
     7
176
     1
 79
     5
176
     1
170
     0
176
     1
171
     0
176
     1
290
     0
176
     1
 93
        1
176
     1
 44
0.0
176
     1
173
     0
176
     1
1001
ACAD
1000
AcDbSavedByObjectVersion
1070
     0
  0
VISUALSTYLE
  5
40
102
{ACAD_XDICTIONARY
360
F5
102
}
102
{ACAD_REACTORS
330
29
102
}
330
29
100
AcDbVisualStyle
  2
OverhangOff
 70
    21
177
     2
291
     1
 71
     2
176
     0
 72
     2
176
     0
 73
     0
176
     0
 90
        0
176
     0
 40
0.6
176
     0
 41
30.0
176
     0
 63
     7
421
 16777215
176
     0
 74
     1
176
     0
 91
        4
176
     0
 64
     7
176
     0
 65
   257
176
     0
 75
     1
176
     0
175
     1
176
     0
 42
1.0
176
     0
 92
        9
176
     2
 66
     7
176
     0
 43
1.0
176
     0
 76
     1
176
     0
 77
     6
176
     0
 78
     2
176
     0
 67
     7
176
     0
 79
     5
176
     0
170
     0
176
     0
171
     0
176
     0
290
     0
176
     0
 93
        1
176
     0
 44
0.0
176
     0
173
     0
176
     0
1001
ACAD
1000
AcDbSavedByObjectVersion
1070
     0
  0
VISUALSTYLE
  5
33
102
{ACAD_XDICTIONARY
360
DB
102
}
102
{ACAD_REACTORS
330
29
102
}
330
29
100
AcDbVisualStyle
  2
Realistic
 70
     8
177
     2
291
     0
 71
     2
176
     1
 72
     3
176
     1
 73
     0
176
     1
 90
        2
176
     1
 40
0.6
176
     1
 41
30.0
176
     1
 63
     7
421
 16777215
176
     1
 74
     0
176
     1
 91
        0
176
     1
 64
     7
176
     1
 65
   257
176
     1
 75
     1
176
     1
175
     1
176
     1
 42
1.0
176
     1
 92
        8
176
     1
 66
   257
176
     1
 43
1.0
176
     1
 76
     1
176
     1
 77
     6
176
     1
 78
     2
176
     1
 67
     7
176
     1
 79
     3
176
     1
170
     0
176
     1
171
     0
176
     1
290
     0
176
     1
 93
       13
176
     1
 44
0.0
176
     1
173
     0
176
     1
1001
ACAD
1000
AcDbSavedByObjectVersion
1070
     0
  0
VISUALSTYLE
  5
3E
102
{ACAD_XDICTIONARY
360
F1
102
}
102
{ACAD_REACTORS
330
29
102
}
330
29
100
AcDbVisualStyle
  2
Shaded
 70
    27
177
     2
291
     0
 71
     2
176
     1
 72
     2
176
     1
 73
     1
176
     1
 90
        2
176
     1
 40
0.6
176
     1
 41
30.0
176
     1
 63
     7
421
 16777215
176
     1
 74
     0
176
     1
 91
        4
176
     1
 64
     7
176
     1
 65
   257
176
     1
 75
     1
176
     1
175
     1
176
     1
 42
1.0
176
     1
 92
        8
176
     1
 66
   257
176
     1
 43
1.0
176
     1
 76
     1
176
     1
 77
     6
176
     1
 78
     2
176
     1
 67
     8
425
  7895160
176
     1
 79
     3
176
     1
170
     0
176
     1
171
     0
176
     1
290
     0
176
     1
 93
        5
176
     1
 44
0.0
176
     1
173
     0
176
     1
1001
ACAD
1000
AcDbSavedByObjectVersion
1070
     0
  0
VISUALSTYLE
  5
3D
102
{ACAD_XDICTIONARY
360
EF
102
}
102
{ACAD_REACTORS
330
29
102
}
330
29
100
AcDbVisualStyle
  2
Shaded with edges
 70
    26
177
     2
291
     0
 71
     2
176
     1
 72
     2
176
     1
 73
     1
176
     1
 90
        2
176
     1
 40
0.6
176
     1
 41
30.0
176
     1
 63
     7
421
 16777215
176
     1
 74
     1
176
     1
 91
        2
176
     1
 64
     7
176
     1
 65
   257
176
     1
 75
     2
176
     1
175
     1
176
     1
 42
1.0
176
     1
 92
        8
176
     1
 66
   257
176
     1
 43
1.0
176
     1
 76
     1
176
     1
 77
     6
176
     1
 78
     2
176
     1
 67
     7
176
     1
 79
     3
176
     1
170
     0
176
     1
171
     0
176
     1
290
     0
176
     1
 93
        5
176
     1
 44
0.0
176
     1
173
     0
176
     1
1001
ACAD
1000
AcDbSavedByObjectVersion
1070
     0
  0
VISUALSTYLE
  5
3A
102
{ACAD_XDICTIONARY
360
E9
102
}
102
{ACAD_REACTORS
330
29
102
}
330
29
100
AcDbVisualStyle
  2
Shades of Gray
 70
    23
177
     2
291
     0
 71
     2
176
     1
 72
     2
176
     1
 73
     3
176
     1
 90
        0
176
     1
 40
0.6
176
     1
 41
30.0
176
     1
 63
     7
421
 16777215
176
     1
 74
     2
176
     1
 91
        2
176
     1
 64
     7
176
     1
 65
     7
176
     1
 75
     1
176
     1
175
     1
176
     1
 42
40.0
176
     1
 92
        8
176
     1
 66
     7
176
     1
 43
1.0
176
     1
 76
     1
176
     1
 77
     6
176
     1
 78
     2
176
     1
 67
     7
176
     1
 79
     3
176
     1
170
     0
176
     1
171
     0
176
     1
290
     0
176
     1
 93
        1
176
     1
 44
0.0
176
     1
173
     0
176
     1
1001
ACAD
1000
AcDbSavedByObjectVersion
1070
     0
  0
VISUALSTYLE
  5
3B
102
{ACAD_XDICTIONARY
360
EB
102
}
102
{ACAD_REACTORS
330
29
102
}
330
29
100
AcDbVisualStyle
  2
Sketchy
 70
    24
177
     2
291
     0
 71
     1
176
     1
 72
     2
176
     1
 73
     2
176
     1
 90
        0
176
     1
 40
0.6
176
     1
 41
30.0
176
     1
 63
     7
421
 16777215
176
     1
 74
     2
176
     1
 91
        2
176
     1
 64
     7
176
     1
 65
     7
176
     1
 75
     1
176
     1
175
     1
176
     1
 42
40.0
176
     1
 92
       11
176
     1
 66
     7
176
     1
 43
1.0
176
     1
 76
     1
176
     1
 77
     6
176
     1
 78
     2
176
     1
 67
     7
176
     1
 79
     6
176
     1
170
     0
176
     1
171
     0
176
     1
290
     0
176
     1
 93
        1
176
     1
 44
0.0
176
     1
173
     0
176
     1
1001
ACAD
1000
AcDbSavedByObjectVersion
1070
     0
  0
VISUALSTYLE
  5
36
102
{ACAD_XDICTIONARY
360
E1
102
}
102
{ACAD_REACTORS
330
29
102
}
330
29
100
AcDbVisualStyle
  2
Thicken
 70
    13
177
     2
291
     1
 71
     2
176
     1
 72
     2
176
     1
 73
     0
176
     1
 90
        0
176
     1
 40
0.6
176
     1
 41
30.0
176
     1
 63
     7
421
 16777215
176
     1
 74
     1
176
     1
 91
        4
176
     1
 64
     7
176
     1
 65
   257
176
     1
 75
     1
176
     1
175
     1
176
     1
 42
1.0
176
     1
 92
       12
176
     1
 66
     7
176
     1
 43
1.0
176
     1
 76
     1
176
     1
 77
     6
176
     1
 78
     2
176
     1
 67
     7
176
     1
 79
     5
176
     1
170
     0
176
     1
171
     0
176
     1
290
     0
176
     1
 93
        1
176
     1
 44
0.0
176
     1
173
     0
176
     1
1001
ACAD
1000
AcDbSavedByObjectVersion
1070
     0
  0
VISUALSTYLE
  5
30
102
{ACAD_XDICTIONARY
360
D5
102
}
102
{ACAD_REACTORS
330
29
102
}
330
29
100
AcDbVisualStyle
  2
Wireframe
 70
     5
177
     2
291
     0
 71
     0
176
     1
 72
     2
176
     1
 73
     0
176
     1
 90
        0
176
     1
 40
0.6
176
     1
 41
30.0
176
     1
 63
     7
421
 16777215
176
     1
 74
     1
176
     1
 91
        4
176
     1
 64
     7
176
     1
 65
   257
176
     1
 75
     1
176
     1
175
     1
176
     1
 42
1.0
176
     1
 92
        0
176
     1
 66
   257
176
     1
 43
1.0
176
     1
 76
     1
176
     1
 77
     6
176
     1
 78
     2
176
     1
 67
     7
176
     1
 79
     3
176
     1
170
     0
176
     1
171
     0
176
     1
290
     0
176
     1
 93
        1
176
     1
 44
0.0
176
     1
173
     0
176
     1
1001
ACAD
1000
AcDbSavedByObjectVersion
1070
     0
  0
VISUALSTYLE
  5
3C
102
{ACAD_XDICTIONARY
360
ED
102
}
102
{ACAD_REACTORS
330
29
102
}
330
29
100
AcDbVisualStyle
  2
X-Ray
 70
    25
177
     2
291
     0
 71
     2
176
     1
 72
     2
176
     1
 73
     1
176
     1
 90
        1
176
     1
 40
0.5
176
     1
 41
30.0
176
     1
 63
     7
421
 16777215
176
     1
 74
     1
176
     1
 91
        0
176
     1
 64
     7
176
     1
 65
   257
176
     1
 75
     1
176
     1
175
     1
176
     1
 42
1.0
176
     1
 92
        8
176
     1
 66
     7
176
     1
 43
1.0
176
     1
 76
     1
176
     1
 77
     6
176
     1
 78
     2
176
     1
 67
     7
176
     1
 79
     3
176
     1
170
     0
176
     1
171
     0
176
     1
290
     0
176
     1
 93
       13
176
     1
 44
0.0
176
     1
173
     0
176
     1
1001
ACAD
1000
AcDbSavedByObjectVersion
1070
     0
  0
DICTIONARYVAR
  5
C5
102
{ACAD_REACTORS
330
C0
102
}
330
C0
100
DictionaryVariables
280
     0
  1
1:1
  0
DICTIONARYVAR
  5
C2
102
{ACAD_REACTORS
330
C0
102
}
330
C0
100
DictionaryVariables
280
     0
  1
STANDARD
  0
DICTIONARYVAR
  5
C1
102
{ACAD_REACTORS
330
C0
102
}
330
C0
100
DictionaryVariables
280
     0
  1
STANDARD
  0
DICTIONARYVAR
  5
C3
102
{ACAD_REACTORS
330
C0
102
}
330
C0
100
DictionaryVariables
280
     0
  1
Imperial24
  0
DICTIONARYVAR
  5
C4
102
{ACAD_REACTORS
330
C0
102
}
330
C0
100
DictionaryVariables
280
     0
  1
Imperial24
  0
DICTIONARY
  5
FD
330
6B
100
AcDbDictionary
280
     1
281
     1
  3
ACAD_XREC_ROUNDTRIP
360
FE
  0
DICTIONARY
  5
1A
330
19
100
AcDbDictionary
280
     1
281
     1
  3
BUMPTILE
360
1C
  3
DIFFUSETILE
360
1B
  3
OPACITYTILE
360
1F
  3
REFLECTIONTILE
360
1E
  3
REFRACTIONTILE
360
20
  3
SPECULARTILE
360
1D
  0
DICTIONARY
  5
12
330
11
100
AcDbDictionary
280
     1
281
     1
  3
BUMPTILE
360
14
  3
DIFFUSETILE
360
13
  3
OPACITYTILE
360
17
  3
REFLECTIONTILE
360
16
  3
REFRACTIONTILE
360
18
  3
SPECULARTILE
360
15
  0
DICTIONARY
  5
22
330
21
100
AcDbDictionary
280
     1
281
     1
  3
BUMPTILE
360
24
  3
DIFFUSETILE
360
23
  3
OPACITYTILE
360
27
  3
REFLECTIONTILE
360
26
  3
REFRACTIONTILE
360
28
  3
SPECULARTILE
360
25
  0
DICTIONARY
  5
F9
330
67
100
AcDbDictionary
280
     1
281
     1
  3
ACAD_XREC_ROUNDTRIP
360
FA
  0
DICTIONARY
  5
FB
330
69
100
AcDbDictionary
280
     1
281
     1
  3
ACAD_XREC_ROUNDTRIP
360
FC
  0
DICTIONARY
  5
C6
330
65
100
AcDbDictionary
280
     1
281
     1
  3
ACAD_ROUNDTRIP_2008_TABLESTYLE_CELLSTYLEMAP
360
C7
  0
DICTIONARY
  5
D3
330
2F
100
AcDbDictionary
280
     1
281
     1
  3
ACAD_XREC_ROUNDTRIP
360
D4
  0
DICTIONARY
  5
D1
330
2E
100
AcDbDictionary
280
     1
281
     1
  3
ACAD_XREC_ROUNDTRIP
360
D2
  0
DICTIONARY
  5
DF
330
35
100
AcDbDictionary
280
     1
281
     1
  3
ACAD_XREC_ROUNDTRIP
360
E0
  0
DICTIONARY
  5
E7
330
39
100
AcDbDictionary
280
     1
281
     1
  3
ACAD_XREC_ROUNDTRIP
360
E8
  0
DICTIONARY
  5
D9
330
32
100
AcDbDictionary
280
     1
281
     1
  3
ACAD_XREC_ROUNDTRIP
360
DA
  0
DICTIONARY
  5
DD
330
34
100
AcDbDictionary
280
     1
281
     1
  3
ACAD_XREC_ROUNDTRIP
360
DE
  0
DICTIONARY
  5
F7
330
41
100
AcDbDictionary
280
     1
281
     1
  3
ACAD_XREC_ROUNDTRIP
360
F8
  0
DICTIONARY
  5
E5
330
38
100
AcDbDictionary
280
     1
281
     1
  3
ACAD_XREC_ROUNDTRIP
360
E6
  0
DICTIONARY
  5
C9
330
2A
100
AcDbDictionary
280
     1
281
     1
  3
ACAD_XREC_ROUNDTRIP
360
CA
  0
DICTIONARY
  5
CB
330
2B
100
AcDbDictionary
280
     1
281
     1
  3
ACAD_XREC_ROUNDTRIP
360
CC
  0
DICTIONARY
  5
CD
330
2C
100
AcDbDictionary
280
     1
281
     1
  3
ACAD_XREC_ROUNDTRIP
360
CE
  0
DICTIONARY
  5
CF
330
2D
100
AcDbDictionary
280
     1
281
     1
  3
ACAD_XREC_ROUNDTRIP
360
D0
  0
DICTIONARY
  5
D7
330
31
100
AcDbDictionary
280
     1
281
     1
  3
ACAD_XREC_ROUNDTRIP
360
D8
  0
DICTIONARY
  5
F3
330
3F
100
AcDbDictionary
280
     1
281
     1
  3
ACAD_XREC_ROUNDTRIP
360
F4
  0
DICTIONARY
  5
E3
330
37
100
AcDbDictionary
280
     1
281
     1
  3
ACAD_XREC_ROUNDTRIP
360
E4
  0
DICTIONARY
  5
F5
330
40
100
AcDbDictionary
280
     1
281
     1
  3
ACAD_XREC_ROUNDTRIP
360
F6
  0
DICTIONARY
  5
DB
330
33
100
AcDbDictionary
280
     1
281
     1
  3
ACAD_XREC_ROUNDTRIP
360
DC
  0
DICTIONARY
  5
F1
330
3E
100
AcDbDictionary
280
     1
281
     1
  3
ACAD_XREC_ROUNDTRIP
360
F2
  0
DICTIONARY
  5
EF
330
3D
100
AcDbDictionary
280
     1
281
     1
  3
ACAD_XREC_ROUNDTRIP
360
F0
  0
DICTIONARY
  5
E9
330
3A
100
AcDbDictionary
280
     1
281
     1
  3
ACAD_XREC_ROUNDTRIP
360
EA
  0
DICTIONARY
  5
EB
330
3B
100
AcDbDictionary
280
     1
281
     1
  3
ACAD_XREC_ROUNDTRIP
360
EC
  0
DICTIONARY
  5
E1
330
36
100
AcDbDictionary
280
     1
281
     1
  3
ACAD_XREC_ROUNDTRIP
360
E2
  0
DICTIONARY
  5
D5
330
30
100
AcDbDictionary
280
     1
281
     1
  3
ACAD_XREC_ROUNDTRIP
360
D6
  0
DICTIONARY
  5
ED
330
3C
100
AcDbDictionary
280
     1
281
     1
  3
ACAD_XREC_ROUNDTRIP
360
EE
  0
XRECORD
  5
FE
102
{ACAD_REACTORS
330
FD
102
}
330
FD
100
AcDbXrecord
280
     1
102
DISPLAYNAME
  1
Imperial24
102
FLAGS
 90
        0
  0
XRECORD
  5
1C
102
{ACAD_REACTORS
330
1A
102
}
330
1A
100
AcDbXrecord
280
     1
270
     1
271
     1
  0
XRECORD
  5
1B
102
{ACAD_REACTORS
330
1A
102
}
330
1A
100
AcDbXrecord
280
     1
270
     1
271
     1
  0
XRECORD
  5
1F
102
{ACAD_REACTORS
330
1A
102
}
330
1A
100
AcDbXrecord
280
     1
270
     1
271
     1
  0
XRECORD
  5
1E
102
{ACAD_REACTORS
330
1A
102
}
330
1A
100
AcDbXrecord
280
     1
270
     1
271
     1
  0
XRECORD
  5
20
102
{ACAD_REACTORS
330
1A
102
}
330
1A
100
AcDbXrecord
280
     1
270
     1
271
     1
  0
XRECORD
  5
1D
102
{ACAD_REACTORS
330
1A
102
}
330
1A
100
AcDbXrecord
280
     1
270
     1
271
     1
  0
XRECORD
  5
14
102
{ACAD_REACTORS
330
12
102
}
330
12
100
AcDbXrecord
280
     1
270
     1
271
     1
  0
XRECORD
  5
13
102
{ACAD_REACTORS
330
12
102
}
330
12
100
AcDbXrecord
280
     1
270
     1
271
     1
  0
XRECORD
  5
17
102
{ACAD_REACTORS
330
12
102
}
330
12
100
AcDbXrecord
280
     1
270
     1
271
     1
  0
XRECORD
  5
16
102
{ACAD_REACTORS
330
12
102
}
330
12
100
AcDbXrecord
280
     1
270
     1
271
     1
  0
XRECORD
  5
18
102
{ACAD_REACTORS
330
12
102
}
330
12
100
AcDbXrecord
280
     1
270
     1
271
     1
  0
XRECORD
  5
15
102
{ACAD_REACTORS
330
12
102
}
330
12
100
AcDbXrecord
280
     1
270
     1
271
     1
  0
XRECORD
  5
24
102
{ACAD_REACTORS
330
22
102
}
330
22
100
AcDbXrecord
280
     1
270
     1
271
     1
  0
XRECORD
  5
23
102
{ACAD_REACTORS
330
22
102
}
330
22
100
AcDbXrecord
280
     1
270
     1
271
     1
  0
XRECORD
  5
27
102
{ACAD_REACTORS
330
22
102
}
330
22
100
AcDbXrecord
280
     1
270
     1
271
     1
  0
XRECORD
  5
26
102
{ACAD_REACTORS
330
22
102
}
330
22
100
AcDbXrecord
280
     1
270
     1
271
     1
  0
XRECORD
  5
28
102
{ACAD_REACTORS
330
22
102
}
330
22
100
AcDbXrecord
280
     1
270
     1
271
     1
  0
XRECORD
  5
25
102
{ACAD_REACTORS
330
22
102
}
330
22
100
AcDbXrecord
280
     1
270
     1
271
     1
  0
XRECORD
  5
FA
102
{ACAD_REACTORS
330
F9
102
}
330
F9
100
AcDbXrecord
280
     1
102
ACAD_ROUNDTRIP_2012_MLEADER_STYLE
298
     1
  0
XRECORD
  5
FC
102
{ACAD_REACTORS
330
FB
102
}
330
FB
100
AcDbXrecord
280
     1
102
DISPLAYNAME
  1
Imperial24
102
FLAGS
 90
        0
  0
CELLSTYLEMAP
  5
C7
102
{ACAD_REACTORS
330
C6
102
}
330
C6
100
AcDbCellStyleMap
 90
        3
300
CELLSTYLE
  1
TABLEFORMAT_BEGIN
 90
        5
170
     1
 91
        0
 92
    32768
 62
   257
 93
        1
300
CONTENTFORMAT
  1
CONTENTFORMAT_BEGIN
 90
        0
 91
        0
 92
      512
 93
        0
300

 40
0.0
140
1.0
 94
        5
 62
     0
340
55
144
0.25
309
CONTENTFORMAT_END
171
     0
 94
        0
309
TABLEFORMAT_END
  1
CELLSTYLE_BEGIN
 90
        1
 91
        1
300
_TITLE
309
CELLSTYLE_END
300
CELLSTYLE
  1
TABLEFORMAT_BEGIN
 90
        5
170
     1
 91
        0
 92
        0
 62
   257
 93
        1
300
CONTENTFORMAT
  1
CONTENTFORMAT_BEGIN
 90
        0
 91
        0
 92
      512
 93
        0
300

 40
0.0
140
1.0
 94
        5
 62
     0
340
55
144
0.18
309
CONTENTFORMAT_END
171
     0
 94
        0
309
TABLEFORMAT_END
  1
CELLSTYLE_BEGIN
 90
        2
 91
        1
300
_HEADER
309
CELLSTYLE_END
300
CELLSTYLE
  1
TABLEFORMAT_BEGIN
 90
        5
170
     1
 91
        0
 92
        0
 62
   257
 93
        1
300
CONTENTFORMAT
  1
CONTENTFORMAT_BEGIN
 90
        0
 91
        0
 92
      512
 93
        0
300

 40
0.0
140
1.0
 94
        2
 62
     0
340
55
144
0.18
309
CONTENTFORMAT_END
171
     0
 94
        0
309
TABLEFORMAT_END
  1
CELLSTYLE_BEGIN
 90
        3
 91
        2
300
_DATA
309
CELLSTYLE_END
  0
XRECORD
  5
D4
102
{ACAD_REACTORS
330
D3
102
}
330
D3
100
AcDbXrecord
280
     1
102
RTVSPost2010Prop28
280
     1
102
RTVSPost2010PropOp28
 70
     1
102
RTVSPost2010Prop29
280
     1
102
RTVSPost2010PropOp29
 70
     1
102
RTVSPost2010Prop30
280
     0
102
RTVSPost2010PropOp30
 70
     1
102
RTVSPost2010Prop31
280
     0
102
RTVSPost2010PropOp31
 70
     1
102
RTVSPost2010Prop32
280
     0
102
RTVSPost2010PropOp32
 70
     1
102
RTVSPost2010Prop33
280
     0
102
RTVSPost2010PropOp33
 70
     1
102
RTVSPost2010Prop34
280
     0
102
RTVSPost2010PropOp34
 70
     1
102
RTVSPost2010Prop35
280
     0
102
RTVSPost2010PropOp35
 70
     1
102
RTVSPost2010Prop36
280
     0
102
RTVSPost2010PropOp36
 70
     1
102
RTVSPost2010Prop37
 90
       50
102
RTVSPost2010PropOp37
 70
     1
102
RTVSPost2010Prop38
140
0.0
102
RTVSPost2010PropOp38
 70
     1
102
RTVSPost2010Prop39
140
1.0
102
RTVSPost2010PropOp39
 70
     1
102
RTVSPost2010Prop40
 90
        0
102
RTVSPost2010PropOp40
 70
     1
102
RTVSPost2010Prop41ColorIndex
 90
       18
102
RTVSPost2010Prop41ColorRGB
 90
        0
102
RTVSPost2010PropOp41
 70
     1
102
RTVSPost2010Prop42
 90
       50
102
RTVSPost2010PropOp42
 70
     1
102
RTVSPost2010Prop43
 90
        3
102
RTVSPost2010PropOp43
 70
     1
102
RTVSPost2010Prop44ColorIndex
 90
        5
102
RTVSPost2010Prop44ColorRGB
 90
      255
102
RTVSPost2010PropOp44
 70
     1
102
RTVSPost2010Prop45
280
     0
102
RTVSPost2010PropOp45
 70
     1
102
RTVSPost2010Prop46
 90
       50
102
RTVSPost2010PropOp46
 70
     1
102
RTVSPost2010Prop47
 90
       50
102
RTVSPost2010PropOp47
 70
     1
102
RTVSPost2010Prop48
 90
       50
102
RTVSPost2010PropOp48
 70
     1
102
RTVSPost2010Prop49
280
     0
102
RTVSPost2010PropOp49
 70
     1
102
RTVSPost2010Prop50
 90
       50
102
RTVSPost2010PropOp50
 70
     1
102
RTVSPost2010Prop51ColorIndex
 90
      256
102
RTVSPost2010Prop51ColorRGB
 90
-16777216
102
RTVSPost2010PropOp51
 70
     0
102
RTVSPost2010Prop52
140
1.0
102
RTVSPost2010PropOp52
 70
     0
102
RTVSPost2010Prop53
 90
        2
102
RTVSPost2010PropOp53
 70
     1
102
RTVSPost2010Prop54
  1
strokes_ogs.tif
102
RTVSPost2010PropOp54
 70
     1
102
RTVSPost2010Prop55
280
     0
102
RTVSPost2010PropOp55
 70
     1
102
RTVSPost2010Prop56
140
1.0
102
RTVSPost2010PropOp56
 70
     1
102
RTVSPost2010Prop57
140
1.0
102
RTVSPost2010PropOp57
 70
     1
  0
XRECORD
  5
D2
102
{ACAD_REACTORS
330
D1
102
}
330
D1
100
AcDbXrecord
280
     1
102
RTVSPost2010Prop28
280
     0
102
RTVSPost2010PropOp28
 70
     1
102
RTVSPost2010Prop29
280
     1
102
RTVSPost2010PropOp29
 70
     1
102
RTVSPost2010Prop30
280
     1
102
RTVSPost2010PropOp30
 70
     1
102
RTVSPost2010Prop31
280
     0
102
RTVSPost2010PropOp31
 70
     1
102
RTVSPost2010Prop32
280
     0
102
RTVSPost2010PropOp32
 70
     1
102
RTVSPost2010Prop33
280
     0
102
RTVSPost2010PropOp33
 70
     1
102
RTVSPost2010Prop34
280
     0
102
RTVSPost2010PropOp34
 70
     1
102
RTVSPost2010Prop35
280
     0
102
RTVSPost2010PropOp35
 70
     1
102
RTVSPost2010Prop36
280
     0
102
RTVSPost2010PropOp36
 70
     1
102
RTVSPost2010Prop37
 90
       50
102
RTVSPost2010PropOp37
 70
     1
102
RTVSPost2010Prop38
140
0.0
102
RTVSPost2010PropOp38
 70
     1
102
RTVSPost2010Prop39
140
1.0
102
RTVSPost2010PropOp39
 70
     1
102
RTVSPost2010Prop40
 90
        0
102
RTVSPost2010PropOp40
 70
     1
102
RTVSPost2010Prop41ColorIndex
 90
       18
102
RTVSPost2010Prop41ColorRGB
 90
        0
102
RTVSPost2010PropOp41
 70
     1
102
RTVSPost2010Prop42
 90
       50
102
RTVSPost2010PropOp42
 70
     1
102
RTVSPost2010Prop43
 90
        3
102
RTVSPost2010PropOp43
 70
     1
102
RTVSPost2010Prop44ColorIndex
 90
        5
102
RTVSPost2010Prop44ColorRGB
 90
      255
102
RTVSPost2010PropOp44
 70
     1
102
RTVSPost2010Prop45
280
     0
102
RTVSPost2010PropOp45
 70
     1
102
RTVSPost2010Prop46
 90
       50
102
RTVSPost2010PropOp46
 70
     1
102
RTVSPost2010Prop47
 90
       50
102
RTVSPost2010PropOp47
 70
     1
102
RTVSPost2010Prop48
 90
       50
102
RTVSPost2010PropOp48
 70
     1
102
RTVSPost2010Prop49
280
     0
102
RTVSPost2010PropOp49
 70
     1
102
RTVSPost2010Prop50
 90
       50
102
RTVSPost2010PropOp50
 70
     1
102
RTVSPost2010Prop51ColorIndex
 90
      256
102
RTVSPost2010Prop51ColorRGB
 90
-16777216
102
RTVSPost2010PropOp51
 70
     0
102
RTVSPost2010Prop52
140
1.0
102
RTVSPost2010PropOp52
 70
     0
102
RTVSPost2010Prop53
 90
        2
102
RTVSPost2010PropOp53
 70
     1
102
RTVSPost2010Prop54
  1
strokes_ogs.tif
102
RTVSPost2010PropOp54
 70
     1
102
RTVSPost2010Prop55
280
     0
102
RTVSPost2010PropOp55
 70
     1
102
RTVSPost2010Prop56
140
1.0
102
RTVSPost2010PropOp56
 70
     1
102
RTVSPost2010Prop57
140
1.0
102
RTVSPost2010PropOp57
 70
     1
  0
XRECORD
  5
E0
102
{ACAD_REACTORS
330
DF
102
}
330
DF
100
AcDbXrecord
280
     1
102
RTVSPost2010Prop28
280
     0
102
RTVSPost2010PropOp28
 70
     1
102
RTVSPost2010Prop29
280
     1
102
RTVSPost2010PropOp29
 70
     1
102
RTVSPost2010Prop30
280
     1
102
RTVSPost2010PropOp30
 70
     1
102
RTVSPost2010Prop31
280
     0
102
RTVSPost2010PropOp31
 70
     1
102
RTVSPost2010Prop32
280
     0
102
RTVSPost2010PropOp32
 70
     1
102
RTVSPost2010Prop33
280
     0
102
RTVSPost2010PropOp33
 70
     1
102
RTVSPost2010Prop34
280
     0
102
RTVSPost2010PropOp34
 70
     1
102
RTVSPost2010Prop35
280
     0
102
RTVSPost2010PropOp35
 70
     1
102
RTVSPost2010Prop36
280
     0
102
RTVSPost2010PropOp36
 70
     1
102
RTVSPost2010Prop37
 90
       50
102
RTVSPost2010PropOp37
 70
     1
102
RTVSPost2010Prop38
140
0.0
102
RTVSPost2010PropOp38
 70
     1
102
RTVSPost2010Prop39
140
1.0
102
RTVSPost2010PropOp39
 70
     1
102
RTVSPost2010Prop40
 90
        0
102
RTVSPost2010PropOp40
 70
     1
102
RTVSPost2010Prop41ColorIndex
 90
       18
102
RTVSPost2010Prop41ColorRGB
 90
        0
102
RTVSPost2010PropOp41
 70
     1
102
RTVSPost2010Prop42
 90
       50
102
RTVSPost2010PropOp42
 70
     1
102
RTVSPost2010Prop43
 90
        3
102
RTVSPost2010PropOp43
 70
     1
102
RTVSPost2010Prop44ColorIndex
 90
        5
102
RTVSPost2010Prop44ColorRGB
 90
      255
102
RTVSPost2010PropOp44
 70
     1
102
RTVSPost2010Prop45
280
     0
102
RTVSPost2010PropOp45
 70
     1
102
RTVSPost2010Prop46
 90
       50
102
RTVSPost2010PropOp46
 70
     1
102
RTVSPost2010Prop47
 90
       50
102
RTVSPost2010PropOp47
 70
     1
102
RTVSPost2010Prop48
 90
       50
102
RTVSPost2010PropOp48
 70
     1
102
RTVSPost2010Prop49
280
     0
102
RTVSPost2010PropOp49
 70
     1
102
RTVSPost2010Prop50
 90
       50
102
RTVSPost2010PropOp50
 70
     1
102
RTVSPost2010Prop51ColorIndex
 90
      256
102
RTVSPost2010Prop51ColorRGB
 90
-16777216
102
RTVSPost2010PropOp51
 70
     0
102
RTVSPost2010Prop52
140
1.0
102
RTVSPost2010PropOp52
 70
     0
102
RTVSPost2010Prop53
 90
        2
102
RTVSPost2010PropOp53
 70
     1
102
RTVSPost2010Prop54
  1
strokes_ogs.tif
102
RTVSPost2010PropOp54
 70
     1
102
RTVSPost2010Prop55
280
     0
102
RTVSPost2010PropOp55
 70
     1
102
RTVSPost2010Prop56
140
1.0
102
RTVSPost2010PropOp56
 70
     1
102
RTVSPost2010Prop57
140
1.0
102
RTVSPost2010PropOp57
 70
     1
  0
XRECORD
  5
E8
102
{ACAD_REACTORS
330
E7
102
}
330
E7
100
AcDbXrecord
280
     1
102
RTVSPost2010Prop28
280
     0
102
RTVSPost2010PropOp28
 70
     1
102
RTVSPost2010Prop29
280
     1
102
RTVSPost2010PropOp29
 70
     1
102
RTVSPost2010Prop30
280
     1
102
RTVSPost2010PropOp30
 70
     1
102
RTVSPost2010Prop31
280
     0
102
RTVSPost2010PropOp31
 70
     1
102
RTVSPost2010Prop32
280
     0
102
RTVSPost2010PropOp32
 70
     1
102
RTVSPost2010Prop33
280
     0
102
RTVSPost2010PropOp33
 70
     1
102
RTVSPost2010Prop34
280
     0
102
RTVSPost2010PropOp34
 70
     1
102
RTVSPost2010Prop35
280
     0
102
RTVSPost2010PropOp35
 70
     1
102
RTVSPost2010Prop36
280
     0
102
RTVSPost2010PropOp36
 70
     1
102
RTVSPost2010Prop37
 90
       50
102
RTVSPost2010PropOp37
 70
     1
102
RTVSPost2010Prop38
140
0.0
102
RTVSPost2010PropOp38
 70
     1
102
RTVSPost2010Prop39
140
1.0
102
RTVSPost2010PropOp39
 70
     1
102
RTVSPost2010Prop40
 90
        0
102
RTVSPost2010PropOp40
 70
     1
102
RTVSPost2010Prop41ColorIndex
 90
       18
102
RTVSPost2010Prop41ColorRGB
 90
        0
102
RTVSPost2010PropOp41
 70
     1
102
RTVSPost2010Prop42
 90
       50
102
RTVSPost2010PropOp42
 70
     1
102
RTVSPost2010Prop43
 90
        3
102
RTVSPost2010PropOp43
 70
     1
102
RTVSPost2010Prop44ColorIndex
 90
        5
102
RTVSPost2010Prop44ColorRGB
 90
      255
102
RTVSPost2010PropOp44
 70
     1
102
RTVSPost2010Prop45
280
     0
102
RTVSPost2010PropOp45
 70
     1
102
RTVSPost2010Prop46
 90
       50
102
RTVSPost2010PropOp46
 70
     1
102
RTVSPost2010Prop47
 90
       50
102
RTVSPost2010PropOp47
 70
     1
102
RTVSPost2010Prop48
 90
       50
102
RTVSPost2010PropOp48
 70
     1
102
RTVSPost2010Prop49
280
     0
102
RTVSPost2010PropOp49
 70
     1
102
RTVSPost2010Prop50
 90
       50
102
RTVSPost2010PropOp50
 70
     1
102
RTVSPost2010Prop51ColorIndex
 90
      256
102
RTVSPost2010Prop51ColorRGB
 90
-16777216
102
RTVSPost2010PropOp51
 70
     0
102
RTVSPost2010Prop52
140
1.0
102
RTVSPost2010PropOp52
 70
     0
102
RTVSPost2010Prop53
 90
        2
102
RTVSPost2010PropOp53
 70
     1
102
RTVSPost2010Prop54
  1
strokes_ogs.tif
102
RTVSPost2010PropOp54
 70
     1
102
RTVSPost2010Prop55
280
     0
102
RTVSPost2010PropOp55
 70
     1
102
RTVSPost2010Prop56
140
1.0
102
RTVSPost2010PropOp56
 70
     1
102
RTVSPost2010Prop57
140
1.0
102
RTVSPost2010PropOp57
 70
     1
  0
XRECORD
  5
DA
102
{ACAD_REACTORS
330
D9
102
}
330
D9
100
AcDbXrecord
280
     1
102
RTVSPost2010Prop28
280
     0
102
RTVSPost2010PropOp28
 70
     1
102
RTVSPost2010Prop29
280
     1
102
RTVSPost2010PropOp29
 70
     1
102
RTVSPost2010Prop30
280
     1
102
RTVSPost2010PropOp30
 70
     1
102
RTVSPost2010Prop31
280
     0
102
RTVSPost2010PropOp31
 70
     1
102
RTVSPost2010Prop32
280
     0
102
RTVSPost2010PropOp32
 70
     1
102
RTVSPost2010Prop33
280
     0
102
RTVSPost2010PropOp33
 70
     1
102
RTVSPost2010Prop34
280
     0
102
RTVSPost2010PropOp34
 70
     1
102
RTVSPost2010Prop35
280
     0
102
RTVSPost2010PropOp35
 70
     1
102
RTVSPost2010Prop36
280
     0
102
RTVSPost2010PropOp36
 70
     1
102
RTVSPost2010Prop37
 90
       50
102
RTVSPost2010PropOp37
 70
     1
102
RTVSPost2010Prop38
140
0.0
102
RTVSPost2010PropOp38
 70
     1
102
RTVSPost2010Prop39
140
1.0
102
RTVSPost2010PropOp39
 70
     1
102
RTVSPost2010Prop40
 90
        0
102
RTVSPost2010PropOp40
 70
     1
102
RTVSPost2010Prop41ColorIndex
 90
       18
102
RTVSPost2010Prop41ColorRGB
 90
        0
102
RTVSPost2010PropOp41
 70
     1
102
RTVSPost2010Prop42
 90
       50
102
RTVSPost2010PropOp42
 70
     1
102
RTVSPost2010Prop43
 90
        3
102
RTVSPost2010PropOp43
 70
     1
102
RTVSPost2010Prop44ColorIndex
 90
        5
102
RTVSPost2010Prop44ColorRGB
 90
      255
102
RTVSPost2010PropOp44
 70
     1
102
RTVSPost2010Prop45
280
     0
102
RTVSPost2010PropOp45
 70
     1
102
RTVSPost2010Prop46
 90
       50
102
RTVSPost2010PropOp46
 70
     1
102
RTVSPost2010Prop47
 90
       50
102
RTVSPost2010PropOp47
 70
     1
102
RTVSPost2010Prop48
 90
       50
102
RTVSPost2010PropOp48
 70
     1
102
RTVSPost2010Prop49
280
     0
102
RTVSPost2010PropOp49
 70
     1
102
RTVSPost2010Prop50
 90
       50
102
RTVSPost2010PropOp50
 70
     1
102
RTVSPost2010Prop51ColorIndex
 90
      256
102
RTVSPost2010Prop51ColorRGB
 90
-16777216
102
RTVSPost2010PropOp51
 70
     0
102
RTVSPost2010Prop52
140
1.0
102
RTVSPost2010PropOp52
 70
     0
102
RTVSPost2010Prop53
 90
        2
102
RTVSPost2010PropOp53
 70
     1
102
RTVSPost2010Prop54
  1
strokes_ogs.tif
102
RTVSPost2010PropOp54
 70
     1
102
RTVSPost2010Prop55
280
     0
102
RTVSPost2010PropOp55
 70
     1
102
RTVSPost2010Prop56
140
1.0
102
RTVSPost2010PropOp56
 70
     1
102
RTVSPost2010Prop57
140
1.0
102
RTVSPost2010PropOp57
 70
     1
  0
XRECORD
  5
DE
102
{ACAD_REACTORS
330
DD
102
}
330
DD
100
AcDbXrecord
280
     1
102
RTVSPost2010Prop28
280
     0
102
RTVSPost2010PropOp28
 70
     1
102
RTVSPost2010Prop29
280
     1
102
RTVSPost2010PropOp29
 70
     1
102
RTVSPost2010Prop30
280
     1
102
RTVSPost2010PropOp30
 70
     1
102
RTVSPost2010Prop31
280
     0
102
RTVSPost2010PropOp31
 70
     1
102
RTVSPost2010Prop32
280
     0
102
RTVSPost2010PropOp32
 70
     1
102
RTVSPost2010Prop33
280
     0
102
RTVSPost2010PropOp33
 70
     1
102
RTVSPost2010Prop34
280
     0
102
RTVSPost2010PropOp34
 70
     1
102
RTVSPost2010Prop35
280
     0
102
RTVSPost2010PropOp35
 70
     1
102
RTVSPost2010Prop36
280
     0
102
RTVSPost2010PropOp36
 70
     1
102
RTVSPost2010Prop37
 90
       50
102
RTVSPost2010PropOp37
 70
     1
102
RTVSPost2010Prop38
140
0.0
102
RTVSPost2010PropOp38
 70
     1
102
RTVSPost2010Prop39
140
1.0
102
RTVSPost2010PropOp39
 70
     1
102
RTVSPost2010Prop40
 90
        0
102
RTVSPost2010PropOp40
 70
     1
102
RTVSPost2010Prop41ColorIndex
 90
       18
102
RTVSPost2010Prop41ColorRGB
 90
        0
102
RTVSPost2010PropOp41
 70
     1
102
RTVSPost2010Prop42
 90
       50
102
RTVSPost2010PropOp42
 70
     1
102
RTVSPost2010Prop43
 90
        3
102
RTVSPost2010PropOp43
 70
     1
102
RTVSPost2010Prop44ColorIndex
 90
        5
102
RTVSPost2010Prop44ColorRGB
 90
      255
102
RTVSPost2010PropOp44
 70
     1
102
RTVSPost2010Prop45
280
     0
102
RTVSPost2010PropOp45
 70
     1
102
RTVSPost2010Prop46
 90
       50
102
RTVSPost2010PropOp46
 70
     1
102
RTVSPost2010Prop47
 90
       50
102
RTVSPost2010PropOp47
 70
     1
102
RTVSPost2010Prop48
 90
       50
102
RTVSPost2010PropOp48
 70
     1
102
RTVSPost2010Prop49
280
     0
102
RTVSPost2010PropOp49
 70
     1
102
RTVSPost2010Prop50
 90
       50
102
RTVSPost2010PropOp50
 70
     1
102
RTVSPost2010Prop51ColorIndex
 90
      256
102
RTVSPost2010Prop51ColorRGB
 90
-16777216
102
RTVSPost2010PropOp51
 70
     0
102
RTVSPost2010Prop52
140
1.0
102
RTVSPost2010PropOp52
 70
     0
102
RTVSPost2010Prop53
 90
        2
102
RTVSPost2010PropOp53
 70
     1
102
RTVSPost2010Prop54
  1
strokes_ogs.tif
102
RTVSPost2010PropOp54
 70
     1
102
RTVSPost2010Prop55
280
     0
102
RTVSPost2010PropOp55
 70
     1
102
RTVSPost2010Prop56
140
1.0
102
RTVSPost2010PropOp56
 70
     1
102
RTVSPost2010Prop57
140
1.0
102
RTVSPost2010PropOp57
 70
     1
  0
XRECORD
  5
F8
102
{ACAD_REACTORS
330
F7
102
}
330
F7
100
AcDbXrecord
280
     1
102
RTVSPost2010Prop28
280
     0
102
RTVSPost2010PropOp28
 70
     0
102
RTVSPost2010Prop29
280
     1
102
RTVSPost2010PropOp29
 70
     0
102
RTVSPost2010Prop30
280
     1
102
RTVSPost2010PropOp30
 70
     0
102
RTVSPost2010Prop31
280
     0
102
RTVSPost2010PropOp31
 70
     0
102
RTVSPost2010Prop32
280
     0
102
RTVSPost2010PropOp32
 70
     0
102
RTVSPost2010Prop33
280
     0
102
RTVSPost2010PropOp33
 70
     0
102
RTVSPost2010Prop34
280
     0
102
RTVSPost2010PropOp34
 70
     0
102
RTVSPost2010Prop35
280
     0
102
RTVSPost2010PropOp35
 70
     0
102
RTVSPost2010Prop36
280
     0
102
RTVSPost2010PropOp36
 70
     0
102
RTVSPost2010Prop37
 90
       50
102
RTVSPost2010PropOp37
 70
     0
102
RTVSPost2010Prop38
140
0.0
102
RTVSPost2010PropOp38
 70
     0
102
RTVSPost2010Prop39
140
1.0
102
RTVSPost2010PropOp39
 70
     0
102
RTVSPost2010Prop40
 90
        0
102
RTVSPost2010PropOp40
 70
     0
102
RTVSPost2010Prop41ColorIndex
 90
       18
102
RTVSPost2010Prop41ColorRGB
 90
        0
102
RTVSPost2010PropOp41
 70
     0
102
RTVSPost2010Prop42
 90
       50
102
RTVSPost2010PropOp42
 70
     0
102
RTVSPost2010Prop43
 90
        3
102
RTVSPost2010PropOp43
 70
     0
102
RTVSPost2010Prop44ColorIndex
 90
        5
102
RTVSPost2010Prop44ColorRGB
 90
      255
102
RTVSPost2010PropOp44
 70
     0
102
RTVSPost2010Prop45
280
     0
102
RTVSPost2010PropOp45
 70
     0
102
RTVSPost2010Prop46
 90
       50
102
RTVSPost2010PropOp46
 70
     0
102
RTVSPost2010Prop47
 90
       50
102
RTVSPost2010PropOp47
 70
     0
102
RTVSPost2010Prop48
 90
       50
102
RTVSPost2010PropOp48
 70
     0
102
RTVSPost2010Prop49
280
     0
102
RTVSPost2010PropOp49
 70
     0
102
RTVSPost2010Prop50
 90
       50
102
RTVSPost2010PropOp50
 70
     0
102
RTVSPost2010Prop51ColorIndex
 90
      256
102
RTVSPost2010Prop51ColorRGB
 90
-16777216
102
RTVSPost2010PropOp51
 70
     0
102
RTVSPost2010Prop52
140
1.0
102
RTVSPost2010PropOp52
 70
     0
102
RTVSPost2010Prop53
 90
        2
102
RTVSPost2010PropOp53
 70
     0
102
RTVSPost2010Prop54
  1
strokes_ogs.tif
102
RTVSPost2010PropOp54
 70
     0
102
RTVSPost2010Prop55
280
     0
102
RTVSPost2010PropOp55
 70
     0
102
RTVSPost2010Prop56
140
1.0
102
RTVSPost2010PropOp56
 70
     0
102
RTVSPost2010Prop57
140
1.0
102
RTVSPost2010PropOp57
 70
     0
  0
XRECORD
  5
E6
102
{ACAD_REACTORS
330
E5
102
}
330
E5
100
AcDbXrecord
280
     1
102
RTVSPost2010Prop28
280
     0
102
RTVSPost2010PropOp28
 70
     1
102
RTVSPost2010Prop29
280
     1
102
RTVSPost2010PropOp29
 70
     1
102
RTVSPost2010Prop30
280
     1
102
RTVSPost2010PropOp30
 70
     1
102
RTVSPost2010Prop31
280
     0
102
RTVSPost2010PropOp31
 70
     1
102
RTVSPost2010Prop32
280
     0
102
RTVSPost2010PropOp32
 70
     1
102
RTVSPost2010Prop33
280
     0
102
RTVSPost2010PropOp33
 70
     1
102
RTVSPost2010Prop34
280
     0
102
RTVSPost2010PropOp34
 70
     1
102
RTVSPost2010Prop35
280
     0
102
RTVSPost2010PropOp35
 70
     1
102
RTVSPost2010Prop36
280
     0
102
RTVSPost2010PropOp36
 70
     1
102
RTVSPost2010Prop37
 90
       50
102
RTVSPost2010PropOp37
 70
     1
102
RTVSPost2010Prop38
140
0.0
102
RTVSPost2010PropOp38
 70
     1
102
RTVSPost2010Prop39
140
1.0
102
RTVSPost2010PropOp39
 70
     1
102
RTVSPost2010Prop40
 90
        0
102
RTVSPost2010PropOp40
 70
     1
102
RTVSPost2010Prop41ColorIndex
 90
       18
102
RTVSPost2010Prop41ColorRGB
 90
        0
102
RTVSPost2010PropOp41
 70
     1
102
RTVSPost2010Prop42
 90
       50
102
RTVSPost2010PropOp42
 70
     1
102
RTVSPost2010Prop43
 90
        3
102
RTVSPost2010PropOp43
 70
     1
102
RTVSPost2010Prop44ColorIndex
 90
        5
102
RTVSPost2010Prop44ColorRGB
 90
      255
102
RTVSPost2010PropOp44
 70
     1
102
RTVSPost2010Prop45
280
     0
102
RTVSPost2010PropOp45
 70
     1
102
RTVSPost2010Prop46
 90
       50
102
RTVSPost2010PropOp46
 70
     1
102
RTVSPost2010Prop47
 90
       50
102
RTVSPost2010PropOp47
 70
     1
102
RTVSPost2010Prop48
 90
       50
102
RTVSPost2010PropOp48
 70
     1
102
RTVSPost2010Prop49
280
     0
102
RTVSPost2010PropOp49
 70
     1
102
RTVSPost2010Prop50
 90
       50
102
RTVSPost2010PropOp50
 70
     1
102
RTVSPost2010Prop51ColorIndex
 90
      256
102
RTVSPost2010Prop51ColorRGB
 90
-16777216
102
RTVSPost2010PropOp51
 70
     0
102
RTVSPost2010Prop52
140
1.0
102
RTVSPost2010PropOp52
 70
     0
102
RTVSPost2010Prop53
 90
        2
102
RTVSPost2010PropOp53
 70
     1
102
RTVSPost2010Prop54
  1
strokes_ogs.tif
102
RTVSPost2010PropOp54
 70
     1
102
RTVSPost2010Prop55
280
     0
102
RTVSPost2010PropOp55
 70
     1
102
RTVSPost2010Prop56
140
1.0
102
RTVSPost2010PropOp56
 70
     1
102
RTVSPost2010Prop57
140
1.0
102
RTVSPost2010PropOp57
 70
     1
  0
XRECORD
  5
CA
102
{ACAD_REACTORS
330
C9
102
}
330
C9
100
AcDbXrecord
280
     1
102
RTVSPost2010Prop28
280
     0
102
RTVSPost2010PropOp28
 70
     1
102
RTVSPost2010Prop29
280
     1
102
RTVSPost2010PropOp29
 70
     1
102
RTVSPost2010Prop30
280
     1
102
RTVSPost2010PropOp30
 70
     1
102
RTVSPost2010Prop31
280
     0
102
RTVSPost2010PropOp31
 70
     1
102
RTVSPost2010Prop32
280
     0
102
RTVSPost2010PropOp32
 70
     1
102
RTVSPost2010Prop33
280
     0
102
RTVSPost2010PropOp33
 70
     1
102
RTVSPost2010Prop34
280
     0
102
RTVSPost2010PropOp34
 70
     1
102
RTVSPost2010Prop35
280
     0
102
RTVSPost2010PropOp35
 70
     1
102
RTVSPost2010Prop36
280
     0
102
RTVSPost2010PropOp36
 70
     1
102
RTVSPost2010Prop37
 90
       50
102
RTVSPost2010PropOp37
 70
     1
102
RTVSPost2010Prop38
140
0.0
102
RTVSPost2010PropOp38
 70
     1
102
RTVSPost2010Prop39
140
1.0
102
RTVSPost2010PropOp39
 70
     1
102
RTVSPost2010Prop40
 90
        0
102
RTVSPost2010PropOp40
 70
     1
102
RTVSPost2010Prop41ColorIndex
 90
       18
102
RTVSPost2010Prop41ColorRGB
 90
        0
102
RTVSPost2010PropOp41
 70
     1
102
RTVSPost2010Prop42
 90
       50
102
RTVSPost2010PropOp42
 70
     1
102
RTVSPost2010Prop43
 90
        3
102
RTVSPost2010PropOp43
 70
     1
102
RTVSPost2010Prop44ColorIndex
 90
        5
102
RTVSPost2010Prop44ColorRGB
 90
      255
102
RTVSPost2010PropOp44
 70
     1
102
RTVSPost2010Prop45
280
     0
102
RTVSPost2010PropOp45
 70
     1
102
RTVSPost2010Prop46
 90
       50
102
RTVSPost2010PropOp46
 70
     1
102
RTVSPost2010Prop47
 90
       50
102
RTVSPost2010PropOp47
 70
     1
102
RTVSPost2010Prop48
 90
       50
102
RTVSPost2010PropOp48
 70
     1
102
RTVSPost2010Prop49
280
     0
102
RTVSPost2010PropOp49
 70
     1
102
RTVSPost2010Prop50
 90
       50
102
RTVSPost2010PropOp50
 70
     1
102
RTVSPost2010Prop51ColorIndex
 90
      256
102
RTVSPost2010Prop51ColorRGB
 90
-16777216
102
RTVSPost2010PropOp51
 70
     0
102
RTVSPost2010Prop52
140
1.0
102
RTVSPost2010PropOp52
 70
     0
102
RTVSPost2010Prop53
 90
        2
102
RTVSPost2010PropOp53
 70
     1
102
RTVSPost2010Prop54
  1
strokes_ogs.tif
102
RTVSPost2010PropOp54
 70
     1
102
RTVSPost2010Prop55
280
     0
102
RTVSPost2010PropOp55
 70
     1
102
RTVSPost2010Prop56
140
1.0
102
RTVSPost2010PropOp56
 70
     1
102
RTVSPost2010Prop57
140
1.0
102
RTVSPost2010PropOp57
 70
     1
  0
XRECORD
  5
CC
102
{ACAD_REACTORS
330
CB
102
}
330
CB
100
AcDbXrecord
280
     1
102
RTVSPost2010Prop28
280
     0
102
RTVSPost2010PropOp28
 70
     1
102
RTVSPost2010Prop29
280
     1
102
RTVSPost2010PropOp29
 70
     1
102
RTVSPost2010Prop30
280
     1
102
RTVSPost2010PropOp30
 70
     1
102
RTVSPost2010Prop31
280
     0
102
RTVSPost2010PropOp31
 70
     1
102
RTVSPost2010Prop32
280
     0
102
RTVSPost2010PropOp32
 70
     1
102
RTVSPost2010Prop33
280
     0
102
RTVSPost2010PropOp33
 70
     1
102
RTVSPost2010Prop34
280
     0
102
RTVSPost2010PropOp34
 70
     1
102
RTVSPost2010Prop35
280
     0
102
RTVSPost2010PropOp35
 70
     1
102
RTVSPost2010Prop36
280
     0
102
RTVSPost2010PropOp36
 70
     1
102
RTVSPost2010Prop37
 90
       50
102
RTVSPost2010PropOp37
 70
     1
102
RTVSPost2010Prop38
140
0.0
102
RTVSPost2010PropOp38
 70
     1
102
RTVSPost2010Prop39
140
1.0
102
RTVSPost2010PropOp39
 70
     1
102
RTVSPost2010Prop40
 90
        0
102
RTVSPost2010PropOp40
 70
     1
102
RTVSPost2010Prop41ColorIndex
 90
       18
102
RTVSPost2010Prop41ColorRGB
 90
        0
102
RTVSPost2010PropOp41
 70
     1
102
RTVSPost2010Prop42
 90
       50
102
RTVSPost2010PropOp42
 70
     1
102
RTVSPost2010Prop43
 90
        3
102
RTVSPost2010PropOp43
 70
     1
102
RTVSPost2010Prop44ColorIndex
 90
        5
102
RTVSPost2010Prop44ColorRGB
 90
      255
102
RTVSPost2010PropOp44
 70
     1
102
RTVSPost2010Prop45
280
     0
102
RTVSPost2010PropOp45
 70
     1
102
RTVSPost2010Prop46
 90
       50
102
RTVSPost2010PropOp46
 70
     1
102
RTVSPost2010Prop47
 90
       50
102
RTVSPost2010PropOp47
 70
     1
102
RTVSPost2010Prop48
 90
       50
102
RTVSPost2010PropOp48
 70
     1
102
RTVSPost2010Prop49
280
     0
102
RTVSPost2010PropOp49
 70
     1
102
RTVSPost2010Prop50
 90
       50
102
RTVSPost2010PropOp50
 70
     1
102
RTVSPost2010Prop51ColorIndex
 90
      256
102
RTVSPost2010Prop51ColorRGB
 90
-16777216
102
RTVSPost2010PropOp51
 70
     0
102
RTVSPost2010Prop52
140
1.0
102
RTVSPost2010PropOp52
 70
     0
102
RTVSPost2010Prop53
 90
        2
102
RTVSPost2010PropOp53
 70
     1
102
RTVSPost2010Prop54
  1
strokes_ogs.tif
102
RTVSPost2010PropOp54
 70
     1
102
RTVSPost2010Prop55
280
     0
102
RTVSPost2010PropOp55
 70
     1
102
RTVSPost2010Prop56
140
1.0
102
RTVSPost2010PropOp56
 70
     1
102
RTVSPost2010Prop57
140
1.0
102
RTVSPost2010PropOp57
 70
     1
  0
XRECORD
  5
CE
102
{ACAD_REACTORS
330
CD
102
}
330
CD
100
AcDbXrecord
280
     1
102
RTVSPost2010Prop28
280
     0
102
RTVSPost2010PropOp28
 70
     1
102
RTVSPost2010Prop29
280
     1
102
RTVSPost2010PropOp29
 70
     1
102
RTVSPost2010Prop30
280
     1
102
RTVSPost2010PropOp30
 70
     1
102
RTVSPost2010Prop31
280
     0
102
RTVSPost2010PropOp31
 70
     1
102
RTVSPost2010Prop32
280
     0
102
RTVSPost2010PropOp32
 70
     1
102
RTVSPost2010Prop33
280
     0
102
RTVSPost2010PropOp33
 70
     1
102
RTVSPost2010Prop34
280
     0
102
RTVSPost2010PropOp34
 70
     1
102
RTVSPost2010Prop35
280
     0
102
RTVSPost2010PropOp35
 70
     1
102
RTVSPost2010Prop36
280
     0
102
RTVSPost2010PropOp36
 70
     1
102
RTVSPost2010Prop37
 90
       50
102
RTVSPost2010PropOp37
 70
     1
102
RTVSPost2010Prop38
140
0.0
102
RTVSPost2010PropOp38
 70
     1
102
RTVSPost2010Prop39
140
1.0
102
RTVSPost2010PropOp39
 70
     1
102
RTVSPost2010Prop40
 90
        0
102
RTVSPost2010PropOp40
 70
     1
102
RTVSPost2010Prop41ColorIndex
 90
       18
102
RTVSPost2010Prop41ColorRGB
 90
        0
102
RTVSPost2010PropOp41
 70
     1
102
RTVSPost2010Prop42
 90
       50
102
RTVSPost2010PropOp42
 70
     1
102
RTVSPost2010Prop43
 90
        3
102
RTVSPost2010PropOp43
 70
     1
102
RTVSPost2010Prop44ColorIndex
 90
        5
102
RTVSPost2010Prop44ColorRGB
 90
      255
102
RTVSPost2010PropOp44
 70
     1
102
RTVSPost2010Prop45
280
     0
102
RTVSPost2010PropOp45
 70
     1
102
RTVSPost2010Prop46
 90
       50
102
RTVSPost2010PropOp46
 70
     1
102
RTVSPost2010Prop47
 90
       50
102
RTVSPost2010PropOp47
 70
     1
102
RTVSPost2010Prop48
 90
       50
102
RTVSPost2010PropOp48
 70
     1
102
RTVSPost2010Prop49
280
     0
102
RTVSPost2010PropOp49
 70
     1
102
RTVSPost2010Prop50
 90
       50
102
RTVSPost2010PropOp50
 70
     1
102
RTVSPost2010Prop51ColorIndex
 90
      256
102
RTVSPost2010Prop51ColorRGB
 90
-16777216
102
RTVSPost2010PropOp51
 70
     0
102
RTVSPost2010Prop52
140
1.0
102
RTVSPost2010PropOp52
 70
     0
102
RTVSPost2010Prop53
 90
        2
102
RTVSPost2010PropOp53
 70
     1
102
RTVSPost2010Prop54
  1
strokes_ogs.tif
102
RTVSPost2010PropOp54
 70
     1
102
RTVSPost2010Prop55
280
     0
102
RTVSPost2010PropOp55
 70
     1
102
RTVSPost2010Prop56
140
1.0
102
RTVSPost2010PropOp56
 70
     1
102
RTVSPost2010Prop57
140
1.0
102
RTVSPost2010PropOp57
 70
     1
  0
XRECORD
  5
D0
102
{ACAD_REACTORS
330
CF
102
}
330
CF
100
AcDbXrecord
280
     1
102
RTVSPost2010Prop28
280
     0
102
RTVSPost2010PropOp28
 70
     1
102
RTVSPost2010Prop29
280
     1
102
RTVSPost2010PropOp29
 70
     1
102
RTVSPost2010Prop30
280
     1
102
RTVSPost2010PropOp30
 70
     1
102
RTVSPost2010Prop31
280
     0
102
RTVSPost2010PropOp31
 70
     1
102
RTVSPost2010Prop32
280
     0
102
RTVSPost2010PropOp32
 70
     1
102
RTVSPost2010Prop33
280
     0
102
RTVSPost2010PropOp33
 70
     1
102
RTVSPost2010Prop34
280
     0
102
RTVSPost2010PropOp34
 70
     1
102
RTVSPost2010Prop35
280
     0
102
RTVSPost2010PropOp35
 70
     1
102
RTVSPost2010Prop36
280
     0
102
RTVSPost2010PropOp36
 70
     1
102
RTVSPost2010Prop37
 90
       50
102
RTVSPost2010PropOp37
 70
     1
102
RTVSPost2010Prop38
140
0.0
102
RTVSPost2010PropOp38
 70
     1
102
RTVSPost2010Prop39
140
1.0
102
RTVSPost2010PropOp39
 70
     1
102
RTVSPost2010Prop40
 90
        0
102
RTVSPost2010PropOp40
 70
     1
102
RTVSPost2010Prop41ColorIndex
 90
       18
102
RTVSPost2010Prop41ColorRGB
 90
        0
102
RTVSPost2010PropOp41
 70
     1
102
RTVSPost2010Prop42
 90
       50
102
RTVSPost2010PropOp42
 70
     1
102
RTVSPost2010Prop43
 90
        3
102
RTVSPost2010PropOp43
 70
     1
102
RTVSPost2010Prop44ColorIndex
 90
        5
102
RTVSPost2010Prop44ColorRGB
 90
      255
102
RTVSPost2010PropOp44
 70
     1
102
RTVSPost2010Prop45
280
     0
102
RTVSPost2010PropOp45
 70
     1
102
RTVSPost2010Prop46
 90
       50
102
RTVSPost2010PropOp46
 70
     1
102
RTVSPost2010Prop47
 90
       50
102
RTVSPost2010PropOp47
 70
     1
102
RTVSPost2010Prop48
 90
       50
102
RTVSPost2010PropOp48
 70
     1
102
RTVSPost2010Prop49
280
     0
102
RTVSPost2010PropOp49
 70
     1
102
RTVSPost2010Prop50
 90
       50
102
RTVSPost2010PropOp50
 70
     1
102
RTVSPost2010Prop51ColorIndex
 90
      256
102
RTVSPost2010Prop51ColorRGB
 90
-16777216
102
RTVSPost2010PropOp51
 70
     0
102
RTVSPost2010Prop52
140
1.0
102
RTVSPost2010PropOp52
 70
     0
102
RTVSPost2010Prop53
 90
        2
102
RTVSPost2010PropOp53
 70
     1
102
RTVSPost2010Prop54
  1
strokes_ogs.tif
102
RTVSPost2010PropOp54
 70
     1
102
RTVSPost2010Prop55
280
     0
102
RTVSPost2010PropOp55
 70
     1
102
RTVSPost2010Prop56
140
1.0
102
RTVSPost2010PropOp56
 70
     1
102
RTVSPost2010Prop57
140
1.0
102
RTVSPost2010PropOp57
 70
     1
  0
XRECORD
  5
D8
102
{ACAD_REACTORS
330
D7
102
}
330
D7
100
AcDbXrecord
280
     1
102
RTVSPost2010Prop28
280
     0
102
RTVSPost2010PropOp28
 70
     1
102
RTVSPost2010Prop29
280
     1
102
RTVSPost2010PropOp29
 70
     1
102
RTVSPost2010Prop30
280
     1
102
RTVSPost2010PropOp30
 70
     1
102
RTVSPost2010Prop31
280
     0
102
RTVSPost2010PropOp31
 70
     1
102
RTVSPost2010Prop32
280
     0
102
RTVSPost2010PropOp32
 70
     1
102
RTVSPost2010Prop33
280
     0
102
RTVSPost2010PropOp33
 70
     1
102
RTVSPost2010Prop34
280
     0
102
RTVSPost2010PropOp34
 70
     1
102
RTVSPost2010Prop35
280
     0
102
RTVSPost2010PropOp35
 70
     1
102
RTVSPost2010Prop36
280
     0
102
RTVSPost2010PropOp36
 70
     1
102
RTVSPost2010Prop37
 90
       50
102
RTVSPost2010PropOp37
 70
     1
102
RTVSPost2010Prop38
140
0.0
102
RTVSPost2010PropOp38
 70
     1
102
RTVSPost2010Prop39
140
1.0
102
RTVSPost2010PropOp39
 70
     1
102
RTVSPost2010Prop40
 90
        0
102
RTVSPost2010PropOp40
 70
     1
102
RTVSPost2010Prop41ColorIndex
 90
       18
102
RTVSPost2010Prop41ColorRGB
 90
        0
102
RTVSPost2010PropOp41
 70
     1
102
RTVSPost2010Prop42
 90
       50
102
RTVSPost2010PropOp42
 70
     1
102
RTVSPost2010Prop43
 90
        3
102
RTVSPost2010PropOp43
 70
     1
102
RTVSPost2010Prop44ColorIndex
 90
        5
102
RTVSPost2010Prop44ColorRGB
 90
      255
102
RTVSPost2010PropOp44
 70
     1
102
RTVSPost2010Prop45
280
     0
102
RTVSPost2010PropOp45
 70
     1
102
RTVSPost2010Prop46
 90
       50
102
RTVSPost2010PropOp46
 70
     1
102
RTVSPost2010Prop47
 90
       50
102
RTVSPost2010PropOp47
 70
     1
102
RTVSPost2010Prop48
 90
       50
102
RTVSPost2010PropOp48
 70
     1
102
RTVSPost2010Prop49
280
     0
102
RTVSPost2010PropOp49
 70
     1
102
RTVSPost2010Prop50
 90
       50
102
RTVSPost2010PropOp50
 70
     1
102
RTVSPost2010Prop51ColorIndex
 90
      256
102
RTVSPost2010Prop51ColorRGB
 90
-16777216
102
RTVSPost2010PropOp51
 70
     0
102
RTVSPost2010Prop52
140
1.0
102
RTVSPost2010PropOp52
 70
     0
102
RTVSPost2010Prop53
 90
        2
102
RTVSPost2010PropOp53
 70
     1
102
RTVSPost2010Prop54
  1
strokes_ogs.tif
102
RTVSPost2010PropOp54
 70
     1
102
RTVSPost2010Prop55
280
     0
102
RTVSPost2010PropOp55
 70
     1
102
RTVSPost2010Prop56
140
1.0
102
RTVSPost2010PropOp56
 70
     1
102
RTVSPost2010Prop57
140
1.0
102
RTVSPost2010PropOp57
 70
     1
  0
XRECORD
  5
F4
102
{ACAD_REACTORS
330
F3
102
}
330
F3
100
AcDbXrecord
280
     1
102
RTVSPost2010Prop28
280
     0
102
RTVSPost2010PropOp28
 70
     0
102
RTVSPost2010Prop29
280
     1
102
RTVSPost2010PropOp29
 70
     0
102
RTVSPost2010Prop30
280
     1
102
RTVSPost2010PropOp30
 70
     0
102
RTVSPost2010Prop31
280
     0
102
RTVSPost2010PropOp31
 70
     0
102
RTVSPost2010Prop32
280
     0
102
RTVSPost2010PropOp32
 70
     0
102
RTVSPost2010Prop33
280
     0
102
RTVSPost2010PropOp33
 70
     0
102
RTVSPost2010Prop34
280
     0
102
RTVSPost2010PropOp34
 70
     0
102
RTVSPost2010Prop35
280
     0
102
RTVSPost2010PropOp35
 70
     0
102
RTVSPost2010Prop36
280
     0
102
RTVSPost2010PropOp36
 70
     0
102
RTVSPost2010Prop37
 90
       50
102
RTVSPost2010PropOp37
 70
     0
102
RTVSPost2010Prop38
140
0.0
102
RTVSPost2010PropOp38
 70
     0
102
RTVSPost2010Prop39
140
1.0
102
RTVSPost2010PropOp39
 70
     0
102
RTVSPost2010Prop40
 90
        0
102
RTVSPost2010PropOp40
 70
     0
102
RTVSPost2010Prop41ColorIndex
 90
       18
102
RTVSPost2010Prop41ColorRGB
 90
        0
102
RTVSPost2010PropOp41
 70
     0
102
RTVSPost2010Prop42
 90
       50
102
RTVSPost2010PropOp42
 70
     0
102
RTVSPost2010Prop43
 90
        3
102
RTVSPost2010PropOp43
 70
     0
102
RTVSPost2010Prop44ColorIndex
 90
        5
102
RTVSPost2010Prop44ColorRGB
 90
      255
102
RTVSPost2010PropOp44
 70
     0
102
RTVSPost2010Prop45
280
     0
102
RTVSPost2010PropOp45
 70
     0
102
RTVSPost2010Prop46
 90
       50
102
RTVSPost2010PropOp46
 70
     0
102
RTVSPost2010Prop47
 90
       50
102
RTVSPost2010PropOp47
 70
     0
102
RTVSPost2010Prop48
 90
       50
102
RTVSPost2010PropOp48
 70
     0
102
RTVSPost2010Prop49
280
     0
102
RTVSPost2010PropOp49
 70
     0
102
RTVSPost2010Prop50
 90
       50
102
RTVSPost2010PropOp50
 70
     0
102
RTVSPost2010Prop51ColorIndex
 90
      256
102
RTVSPost2010Prop51ColorRGB
 90
-16777216
102
RTVSPost2010PropOp51
 70
     0
102
RTVSPost2010Prop52
140
1.0
102
RTVSPost2010PropOp52
 70
     0
102
RTVSPost2010Prop53
 90
        2
102
RTVSPost2010PropOp53
 70
     0
102
RTVSPost2010Prop54
  1
strokes_ogs.tif
102
RTVSPost2010PropOp54
 70
     0
102
RTVSPost2010Prop55
280
     0
102
RTVSPost2010PropOp55
 70
     0
102
RTVSPost2010Prop56
140
1.0
102
RTVSPost2010PropOp56
 70
     0
102
RTVSPost2010Prop57
140
1.0
102
RTVSPost2010PropOp57
 70
     0
  0
XRECORD
  5
E4
102
{ACAD_REACTORS
330
E3
102
}
330
E3
100
AcDbXrecord
280
     1
102
RTVSPost2010Prop28
280
     0
102
RTVSPost2010PropOp28
 70
     1
102
RTVSPost2010Prop29
280
     1
102
RTVSPost2010PropOp29
 70
     1
102
RTVSPost2010Prop30
280
     1
102
RTVSPost2010PropOp30
 70
     1
102
RTVSPost2010Prop31
280
     0
102
RTVSPost2010PropOp31
 70
     1
102
RTVSPost2010Prop32
280
     0
102
RTVSPost2010PropOp32
 70
     1
102
RTVSPost2010Prop33
280
     0
102
RTVSPost2010PropOp33
 70
     1
102
RTVSPost2010Prop34
280
     0
102
RTVSPost2010PropOp34
 70
     1
102
RTVSPost2010Prop35
280
     0
102
RTVSPost2010PropOp35
 70
     1
102
RTVSPost2010Prop36
280
     0
102
RTVSPost2010PropOp36
 70
     1
102
RTVSPost2010Prop37
 90
       50
102
RTVSPost2010PropOp37
 70
     1
102
RTVSPost2010Prop38
140
0.0
102
RTVSPost2010PropOp38
 70
     1
102
RTVSPost2010Prop39
140
1.0
102
RTVSPost2010PropOp39
 70
     1
102
RTVSPost2010Prop40
 90
        0
102
RTVSPost2010PropOp40
 70
     1
102
RTVSPost2010Prop41ColorIndex
 90
       18
102
RTVSPost2010Prop41ColorRGB
 90
        0
102
RTVSPost2010PropOp41
 70
     1
102
RTVSPost2010Prop42
 90
       50
102
RTVSPost2010PropOp42
 70
     1
102
RTVSPost2010Prop43
 90
        3
102
RTVSPost2010PropOp43
 70
     1
102
RTVSPost2010Prop44ColorIndex
 90
        5
102
RTVSPost2010Prop44ColorRGB
 90
      255
102
RTVSPost2010PropOp44
 70
     1
102
RTVSPost2010Prop45
280
     0
102
RTVSPost2010PropOp45
 70
     1
102
RTVSPost2010Prop46
 90
       50
102
RTVSPost2010PropOp46
 70
     1
102
RTVSPost2010Prop47
 90
       50
102
RTVSPost2010PropOp47
 70
     1
102
RTVSPost2010Prop48
 90
       50
102
RTVSPost2010PropOp48
 70
     1
102
RTVSPost2010Prop49
280
     0
102
RTVSPost2010PropOp49
 70
     1
102
RTVSPost2010Prop50
 90
       50
102
RTVSPost2010PropOp50
 70
     1
102
RTVSPost2010Prop51ColorIndex
 90
      256
102
RTVSPost2010Prop51ColorRGB
 90
-16777216
102
RTVSPost2010PropOp51
 70
     0
102
RTVSPost2010Prop52
140
1.0
102
RTVSPost2010PropOp52
 70
     0
102
RTVSPost2010Prop53
 90
        2
102
RTVSPost2010PropOp53
 70
     1
102
RTVSPost2010Prop54
  1
strokes_ogs.tif
102
RTVSPost2010PropOp54
 70
     1
102
RTVSPost2010Prop55
280
     0
102
RTVSPost2010PropOp55
 70
     1
102
RTVSPost2010Prop56
140
1.0
102
RTVSPost2010PropOp56
 70
     1
102
RTVSPost2010Prop57
140
1.0
102
RTVSPost2010PropOp57
 70
     1
  0
XRECORD
  5
F6
102
{ACAD_REACTORS
330
F5
102
}
330
F5
100
AcDbXrecord
280
     1
102
RTVSPost2010Prop28
280
     0
102
RTVSPost2010PropOp28
 70
     0
102
RTVSPost2010Prop29
280
     1
102
RTVSPost2010PropOp29
 70
     0
102
RTVSPost2010Prop30
280
     1
102
RTVSPost2010PropOp30
 70
     0
102
RTVSPost2010Prop31
280
     0
102
RTVSPost2010PropOp31
 70
     0
102
RTVSPost2010Prop32
280
     0
102
RTVSPost2010PropOp32
 70
     0
102
RTVSPost2010Prop33
280
     0
102
RTVSPost2010PropOp33
 70
     0
102
RTVSPost2010Prop34
280
     0
102
RTVSPost2010PropOp34
 70
     0
102
RTVSPost2010Prop35
280
     0
102
RTVSPost2010PropOp35
 70
     0
102
RTVSPost2010Prop36
280
     0
102
RTVSPost2010PropOp36
 70
     0
102
RTVSPost2010Prop37
 90
       50
102
RTVSPost2010PropOp37
 70
     0
102
RTVSPost2010Prop38
140
0.0
102
RTVSPost2010PropOp38
 70
     0
102
RTVSPost2010Prop39
140
1.0
102
RTVSPost2010PropOp39
 70
     0
102
RTVSPost2010Prop40
 90
        0
102
RTVSPost2010PropOp40
 70
     0
102
RTVSPost2010Prop41ColorIndex
 90
       18
102
RTVSPost2010Prop41ColorRGB
 90
        0
102
RTVSPost2010PropOp41
 70
     0
102
RTVSPost2010Prop42
 90
       50
102
RTVSPost2010PropOp42
 70
     0
102
RTVSPost2010Prop43
 90
        3
102
RTVSPost2010PropOp43
 70
     0
102
RTVSPost2010Prop44ColorIndex
 90
        5
102
RTVSPost2010Prop44ColorRGB
 90
      255
102
RTVSPost2010PropOp44
 70
     0
102
RTVSPost2010Prop45
280
     0
102
RTVSPost2010PropOp45
 70
     0
102
RTVSPost2010Prop46
 90
       50
102
RTVSPost2010PropOp46
 70
     0
102
RTVSPost2010Prop47
 90
       50
102
RTVSPost2010PropOp47
 70
     0
102
RTVSPost2010Prop48
 90
       50
102
RTVSPost2010PropOp48
 70
     0
102
RTVSPost2010Prop49
280
     0
102
RTVSPost2010PropOp49
 70
     0
102
RTVSPost2010Prop50
 90
       50
102
RTVSPost2010PropOp50
 70
     0
102
RTVSPost2010Prop51ColorIndex
 90
      256
102
RTVSPost2010Prop51ColorRGB
 90
-16777216
102
RTVSPost2010PropOp51
 70
     0
102
RTVSPost2010Prop52
140
1.0
102
RTVSPost2010PropOp52
 70
     0
102
RTVSPost2010Prop53
 90
        2
102
RTVSPost2010PropOp53
 70
     0
102
RTVSPost2010Prop54
  1
strokes_ogs.tif
102
RTVSPost2010PropOp54
 70
     0
102
RTVSPost2010Prop55
280
     0
102
RTVSPost2010PropOp55
 70
     0
102
RTVSPost2010Prop56
140
1.0
102
RTVSPost2010PropOp56
 70
     0
102
RTVSPost2010Prop57
140
1.0
102
RTVSPost2010PropOp57
 70
     0
  0
XRECORD
  5
DC
102
{ACAD_REACTORS
330
DB
102
}
330
DB
100
AcDbXrecord
280
     1
102
RTVSPost2010Prop28
280
     0
102
RTVSPost2010PropOp28
 70
     1
102
RTVSPost2010Prop29
280
     1
102
RTVSPost2010PropOp29
 70
     1
102
RTVSPost2010Prop30
280
     1
102
RTVSPost2010PropOp30
 70
     1
102
RTVSPost2010Prop31
280
     0
102
RTVSPost2010PropOp31
 70
     1
102
RTVSPost2010Prop32
280
     0
102
RTVSPost2010PropOp32
 70
     1
102
RTVSPost2010Prop33
280
     0
102
RTVSPost2010PropOp33
 70
     1
102
RTVSPost2010Prop34
280
     0
102
RTVSPost2010PropOp34
 70
     1
102
RTVSPost2010Prop35
280
     0
102
RTVSPost2010PropOp35
 70
     1
102
RTVSPost2010Prop36
280
     0
102
RTVSPost2010PropOp36
 70
     1
102
RTVSPost2010Prop37
 90
       50
102
RTVSPost2010PropOp37
 70
     1
102
RTVSPost2010Prop38
140
0.0
102
RTVSPost2010PropOp38
 70
     1
102
RTVSPost2010Prop39
140
1.0
102
RTVSPost2010PropOp39
 70
     1
102
RTVSPost2010Prop40
 90
        0
102
RTVSPost2010PropOp40
 70
     1
102
RTVSPost2010Prop41ColorIndex
 90
       18
102
RTVSPost2010Prop41ColorRGB
 90
        0
102
RTVSPost2010PropOp41
 70
     1
102
RTVSPost2010Prop42
 90
       50
102
RTVSPost2010PropOp42
 70
     1
102
RTVSPost2010Prop43
 90
        3
102
RTVSPost2010PropOp43
 70
     1
102
RTVSPost2010Prop44ColorIndex
 90
        5
102
RTVSPost2010Prop44ColorRGB
 90
      255
102
RTVSPost2010PropOp44
 70
     1
102
RTVSPost2010Prop45
280
     0
102
RTVSPost2010PropOp45
 70
     1
102
RTVSPost2010Prop46
 90
       50
102
RTVSPost2010PropOp46
 70
     1
102
RTVSPost2010Prop47
 90
       50
102
RTVSPost2010PropOp47
 70
     1
102
RTVSPost2010Prop48
 90
       50
102
RTVSPost2010PropOp48
 70
     1
102
RTVSPost2010Prop49
280
     0
102
RTVSPost2010PropOp49
 70
     1
102
RTVSPost2010Prop50
 90
       50
102
RTVSPost2010PropOp50
 70
     1
102
RTVSPost2010Prop51ColorIndex
 90
      256
102
RTVSPost2010Prop51ColorRGB
 90
-16777216
102
RTVSPost2010PropOp51
 70
     0
102
RTVSPost2010Prop52
140
1.0
102
RTVSPost2010PropOp52
 70
     0
102
RTVSPost2010Prop53
 90
        2
102
RTVSPost2010PropOp53
 70
     1
102
RTVSPost2010Prop54
  1
strokes_ogs.tif
102
RTVSPost2010PropOp54
 70
     1
102
RTVSPost2010Prop55
280
     0
102
RTVSPost2010PropOp55
 70
     1
102
RTVSPost2010Prop56
140
1.0
102
RTVSPost2010PropOp56
 70
     1
102
RTVSPost2010Prop57
140
1.0
102
RTVSPost2010PropOp57
 70
     1
  0
XRECORD
  5
F2
102
{ACAD_REACTORS
330
F1
102
}
330
F1
100
AcDbXrecord
280
     1
102
RTVSPost2010Prop28
280
     0
102
RTVSPost2010PropOp28
 70
     1
102
RTVSPost2010Prop29
280
     1
102
RTVSPost2010PropOp29
 70
     1
102
RTVSPost2010Prop30
280
     1
102
RTVSPost2010PropOp30
 70
     1
102
RTVSPost2010Prop31
280
     0
102
RTVSPost2010PropOp31
 70
     1
102
RTVSPost2010Prop32
280
     0
102
RTVSPost2010PropOp32
 70
     1
102
RTVSPost2010Prop33
280
     0
102
RTVSPost2010PropOp33
 70
     1
102
RTVSPost2010Prop34
280
     0
102
RTVSPost2010PropOp34
 70
     1
102
RTVSPost2010Prop35
280
     0
102
RTVSPost2010PropOp35
 70
     1
102
RTVSPost2010Prop36
280
     0
102
RTVSPost2010PropOp36
 70
     1
102
RTVSPost2010Prop37
 90
       50
102
RTVSPost2010PropOp37
 70
     1
102
RTVSPost2010Prop38
140
0.0
102
RTVSPost2010PropOp38
 70
     1
102
RTVSPost2010Prop39
140
1.0
102
RTVSPost2010PropOp39
 70
     1
102
RTVSPost2010Prop40
 90
        0
102
RTVSPost2010PropOp40
 70
     1
102
RTVSPost2010Prop41ColorIndex
 90
       18
102
RTVSPost2010Prop41ColorRGB
 90
        0
102
RTVSPost2010PropOp41
 70
     1
102
RTVSPost2010Prop42
 90
       50
102
RTVSPost2010PropOp42
 70
     1
102
RTVSPost2010Prop43
 90
        3
102
RTVSPost2010PropOp43
 70
     1
102
RTVSPost2010Prop44ColorIndex
 90
        5
102
RTVSPost2010Prop44ColorRGB
 90
      255
102
RTVSPost2010PropOp44
 70
     1
102
RTVSPost2010Prop45
280
     0
102
RTVSPost2010PropOp45
 70
     1
102
RTVSPost2010Prop46
 90
       50
102
RTVSPost2010PropOp46
 70
     1
102
RTVSPost2010Prop47
 90
       50
102
RTVSPost2010PropOp47
 70
     1
102
RTVSPost2010Prop48
 90
       50
102
RTVSPost2010PropOp48
 70
     1
102
RTVSPost2010Prop49
280
     0
102
RTVSPost2010PropOp49
 70
     1
102
RTVSPost2010Prop50
 90
       50
102
RTVSPost2010PropOp50
 70
     1
102
RTVSPost2010Prop51ColorIndex
 90
      256
102
RTVSPost2010Prop51ColorRGB
 90
-16777216
102
RTVSPost2010PropOp51
 70
     0
102
RTVSPost2010Prop52
140
1.0
102
RTVSPost2010PropOp52
 70
     0
102
RTVSPost2010Prop53
 90
        2
102
RTVSPost2010PropOp53
 70
     1
102
RTVSPost2010Prop54
  1
strokes_ogs.tif
102
RTVSPost2010PropOp54
 70
     1
102
RTVSPost2010Prop55
280
     0
102
RTVSPost2010PropOp55
 70
     1
102
RTVSPost2010Prop56
140
1.0
102
RTVSPost2010PropOp56
 70
     1
102
RTVSPost2010Prop57
140
1.0
102
RTVSPost2010PropOp57
 70
     1
  0
XRECORD
  5
F0
102
{ACAD_REACTORS
330
EF
102
}
330
EF
100
AcDbXrecord
280
     1
102
RTVSPost2010Prop28
280
     0
102
RTVSPost2010PropOp28
 70
     1
102
RTVSPost2010Prop29
280
     1
102
RTVSPost2010PropOp29
 70
     1
102
RTVSPost2010Prop30
280
     1
102
RTVSPost2010PropOp30
 70
     1
102
RTVSPost2010Prop31
280
     0
102
RTVSPost2010PropOp31
 70
     1
102
RTVSPost2010Prop32
280
     0
102
RTVSPost2010PropOp32
 70
     1
102
RTVSPost2010Prop33
280
     0
102
RTVSPost2010PropOp33
 70
     1
102
RTVSPost2010Prop34
280
     0
102
RTVSPost2010PropOp34
 70
     1
102
RTVSPost2010Prop35
280
     0
102
RTVSPost2010PropOp35
 70
     1
102
RTVSPost2010Prop36
280
     0
102
RTVSPost2010PropOp36
 70
     1
102
RTVSPost2010Prop37
 90
       50
102
RTVSPost2010PropOp37
 70
     1
102
RTVSPost2010Prop38
140
0.0
102
RTVSPost2010PropOp38
 70
     1
102
RTVSPost2010Prop39
140
1.0
102
RTVSPost2010PropOp39
 70
     1
102
RTVSPost2010Prop40
 90
        0
102
RTVSPost2010PropOp40
 70
     1
102
RTVSPost2010Prop41ColorIndex
 90
       18
102
RTVSPost2010Prop41ColorRGB
 90
        0
102
RTVSPost2010PropOp41
 70
     1
102
RTVSPost2010Prop42
 90
       50
102
RTVSPost2010PropOp42
 70
     1
102
RTVSPost2010Prop43
 90
        3
102
RTVSPost2010PropOp43
 70
     1
102
RTVSPost2010Prop44ColorIndex
 90
        5
102
RTVSPost2010Prop44ColorRGB
 90
      255
102
RTVSPost2010PropOp44
 70
     1
102
RTVSPost2010Prop45
280
     0
102
RTVSPost2010PropOp45
 70
     1
102
RTVSPost2010Prop46
 90
       50
102
RTVSPost2010PropOp46
 70
     1
102
RTVSPost2010Prop47
 90
       50
102
RTVSPost2010PropOp47
 70
     1
102
RTVSPost2010Prop48
 90
       50
102
RTVSPost2010PropOp48
 70
     1
102
RTVSPost2010Prop49
280
     0
102
RTVSPost2010PropOp49
 70
     1
102
RTVSPost2010Prop50
 90
       50
102
RTVSPost2010PropOp50
 70
     1
102
RTVSPost2010Prop51ColorIndex
 90
      256
102
RTVSPost2010Prop51ColorRGB
 90
-16777216
102
RTVSPost2010PropOp51
 70
     0
102
RTVSPost2010Prop52
140
1.0
102
RTVSPost2010PropOp52
 70
     0
102
RTVSPost2010Prop53
 90
        2
102
RTVSPost2010PropOp53
 70
     1
102
RTVSPost2010Prop54
  1
strokes_ogs.tif
102
RTVSPost2010PropOp54
 70
     1
102
RTVSPost2010Prop55
280
     0
102
RTVSPost2010PropOp55
 70
     1
102
RTVSPost2010Prop56
140
1.0
102
RTVSPost2010PropOp56
 70
     1
102
RTVSPost2010Prop57
140
1.0
102
RTVSPost2010PropOp57
 70
     1
  0
XRECORD
  5
EA
102
{ACAD_REACTORS
330
E9
102
}
330
E9
100
AcDbXrecord
280
     1
102
RTVSPost2010Prop28
280
     0
102
RTVSPost2010PropOp28
 70
     1
102
RTVSPost2010Prop29
280
     1
102
RTVSPost2010PropOp29
 70
     1
102
RTVSPost2010Prop30
280
     1
102
RTVSPost2010PropOp30
 70
     1
102
RTVSPost2010Prop31
280
     0
102
RTVSPost2010PropOp31
 70
     1
102
RTVSPost2010Prop32
280
     0
102
RTVSPost2010PropOp32
 70
     1
102
RTVSPost2010Prop33
280
     0
102
RTVSPost2010PropOp33
 70
     1
102
RTVSPost2010Prop34
280
     0
102
RTVSPost2010PropOp34
 70
     1
102
RTVSPost2010Prop35
280
     0
102
RTVSPost2010PropOp35
 70
     1
102
RTVSPost2010Prop36
280
     0
102
RTVSPost2010PropOp36
 70
     1
102
RTVSPost2010Prop37
 90
       50
102
RTVSPost2010PropOp37
 70
     1
102
RTVSPost2010Prop38
140
0.0
102
RTVSPost2010PropOp38
 70
     1
102
RTVSPost2010Prop39
140
1.0
102
RTVSPost2010PropOp39
 70
     1
102
RTVSPost2010Prop40
 90
        0
102
RTVSPost2010PropOp40
 70
     1
102
RTVSPost2010Prop41ColorIndex
 90
       18
102
RTVSPost2010Prop41ColorRGB
 90
        0
102
RTVSPost2010PropOp41
 70
     1
102
RTVSPost2010Prop42
 90
       50
102
RTVSPost2010PropOp42
 70
     1
102
RTVSPost2010Prop43
 90
        3
102
RTVSPost2010PropOp43
 70
     1
102
RTVSPost2010Prop44ColorIndex
 90
        5
102
RTVSPost2010Prop44ColorRGB
 90
      255
102
RTVSPost2010PropOp44
 70
     1
102
RTVSPost2010Prop45
280
     0
102
RTVSPost2010PropOp45
 70
     1
102
RTVSPost2010Prop46
 90
       50
102
RTVSPost2010PropOp46
 70
     1
102
RTVSPost2010Prop47
 90
       50
102
RTVSPost2010PropOp47
 70
     1
102
RTVSPost2010Prop48
 90
       50
102
RTVSPost2010PropOp48
 70
     1
102
RTVSPost2010Prop49
280
     0
102
RTVSPost2010PropOp49
 70
     1
102
RTVSPost2010Prop50
 90
       50
102
RTVSPost2010PropOp50
 70
     1
102
RTVSPost2010Prop51ColorIndex
 90
      256
102
RTVSPost2010Prop51ColorRGB
 90
-16777216
102
RTVSPost2010PropOp51
 70
     0
102
RTVSPost2010Prop52
140
1.0
102
RTVSPost2010PropOp52
 70
     0
102
RTVSPost2010Prop53
 90
        2
102
RTVSPost2010PropOp53
 70
     1
102
RTVSPost2010Prop54
  1
strokes_ogs.tif
102
RTVSPost2010PropOp54
 70
     1
102
RTVSPost2010Prop55
280
     0
102
RTVSPost2010PropOp55
 70
     1
102
RTVSPost2010Prop56
140
1.0
102
RTVSPost2010PropOp56
 70
     1
102
RTVSPost2010Prop57
140
1.0
102
RTVSPost2010PropOp57
 70
     1
  0
XRECORD
  5
EC
102
{ACAD_REACTORS
330
EB
102
}
330
EB
100
AcDbXrecord
280
     1
102
RTVSPost2010Prop28
280
     0
102
RTVSPost2010PropOp28
 70
     1
102
RTVSPost2010Prop29
280
     1
102
RTVSPost2010PropOp29
 70
     1
102
RTVSPost2010Prop30
280
     1
102
RTVSPost2010PropOp30
 70
     1
102
RTVSPost2010Prop31
280
     0
102
RTVSPost2010PropOp31
 70
     1
102
RTVSPost2010Prop32
280
     0
102
RTVSPost2010PropOp32
 70
     1
102
RTVSPost2010Prop33
280
     0
102
RTVSPost2010PropOp33
 70
     1
102
RTVSPost2010Prop34
280
     0
102
RTVSPost2010PropOp34
 70
     1
102
RTVSPost2010Prop35
280
     0
102
RTVSPost2010PropOp35
 70
     1
102
RTVSPost2010Prop36
280
     0
102
RTVSPost2010PropOp36
 70
     1
102
RTVSPost2010Prop37
 90
       50
102
RTVSPost2010PropOp37
 70
     1
102
RTVSPost2010Prop38
140
0.0
102
RTVSPost2010PropOp38
 70
     1
102
RTVSPost2010Prop39
140
1.0
102
RTVSPost2010PropOp39
 70
     1
102
RTVSPost2010Prop40
 90
        0
102
RTVSPost2010PropOp40
 70
     1
102
RTVSPost2010Prop41ColorIndex
 90
       18
102
RTVSPost2010Prop41ColorRGB
 90
        0
102
RTVSPost2010PropOp41
 70
     1
102
RTVSPost2010Prop42
 90
       50
102
RTVSPost2010PropOp42
 70
     1
102
RTVSPost2010Prop43
 90
        3
102
RTVSPost2010PropOp43
 70
     1
102
RTVSPost2010Prop44ColorIndex
 90
        5
102
RTVSPost2010Prop44ColorRGB
 90
      255
102
RTVSPost2010PropOp44
 70
     1
102
RTVSPost2010Prop45
280
     0
102
RTVSPost2010PropOp45
 70
     1
102
RTVSPost2010Prop46
 90
       50
102
RTVSPost2010PropOp46
 70
     1
102
RTVSPost2010Prop47
 90
       50
102
RTVSPost2010PropOp47
 70
     1
102
RTVSPost2010Prop48
 90
       50
102
RTVSPost2010PropOp48
 70
     1
102
RTVSPost2010Prop49
280
     0
102
RTVSPost2010PropOp49
 70
     1
102
RTVSPost2010Prop50
 90
       50
102
RTVSPost2010PropOp50
 70
     1
102
RTVSPost2010Prop51ColorIndex
 90
      256
102
RTVSPost2010Prop51ColorRGB
 90
-16777216
102
RTVSPost2010PropOp51
 70
     0
102
RTVSPost2010Prop52
140
1.0
102
RTVSPost2010PropOp52
 70
     0
102
RTVSPost2010Prop53
 90
        2
102
RTVSPost2010PropOp53
 70
     1
102
RTVSPost2010Prop54
  1
strokes_ogs.tif
102
RTVSPost2010PropOp54
 70
     1
102
RTVSPost2010Prop55
280
     0
102
RTVSPost2010PropOp55
 70
     1
102
RTVSPost2010Prop56
140
1.0
102
RTVSPost2010PropOp56
 70
     1
102
RTVSPost2010Prop57
140
1.0
102
RTVSPost2010PropOp57
 70
     1
  0
XRECORD
  5
E2
102
{ACAD_REACTORS
330
E1
102
}
330
E1
100
AcDbXrecord
280
     1
102
RTVSPost2010Prop28
280
     0
102
RTVSPost2010PropOp28
 70
     1
102
RTVSPost2010Prop29
280
     1
102
RTVSPost2010PropOp29
 70
     1
102
RTVSPost2010Prop30
280
     1
102
RTVSPost2010PropOp30
 70
     1
102
RTVSPost2010Prop31
280
     0
102
RTVSPost2010PropOp31
 70
     1
102
RTVSPost2010Prop32
280
     0
102
RTVSPost2010PropOp32
 70
     1
102
RTVSPost2010Prop33
280
     0
102
RTVSPost2010PropOp33
 70
     1
102
RTVSPost2010Prop34
280
     0
102
RTVSPost2010PropOp34
 70
     1
102
RTVSPost2010Prop35
280
     0
102
RTVSPost2010PropOp35
 70
     1
102
RTVSPost2010Prop36
280
     0
102
RTVSPost2010PropOp36
 70
     1
102
RTVSPost2010Prop37
 90
       50
102
RTVSPost2010PropOp37
 70
     1
102
RTVSPost2010Prop38
140
0.0
102
RTVSPost2010PropOp38
 70
     1
102
RTVSPost2010Prop39
140
1.0
102
RTVSPost2010PropOp39
 70
     1
102
RTVSPost2010Prop40
 90
        0
102
RTVSPost2010PropOp40
 70
     1
102
RTVSPost2010Prop41ColorIndex
 90
       18
102
RTVSPost2010Prop41ColorRGB
 90
        0
102
RTVSPost2010PropOp41
 70
     1
102
RTVSPost2010Prop42
 90
       50
102
RTVSPost2010PropOp42
 70
     1
102
RTVSPost2010Prop43
 90
        3
102
RTVSPost2010PropOp43
 70
     1
102
RTVSPost2010Prop44ColorIndex
 90
        5
102
RTVSPost2010Prop44ColorRGB
 90
      255
102
RTVSPost2010PropOp44
 70
     1
102
RTVSPost2010Prop45
280
     0
102
RTVSPost2010PropOp45
 70
     1
102
RTVSPost2010Prop46
 90
       50
102
RTVSPost2010PropOp46
 70
     1
102
RTVSPost2010Prop47
 90
       50
102
RTVSPost2010PropOp47
 70
     1
102
RTVSPost2010Prop48
 90
       50
102
RTVSPost2010PropOp48
 70
     1
102
RTVSPost2010Prop49
280
     0
102
RTVSPost2010PropOp49
 70
     1
102
RTVSPost2010Prop50
 90
       50
102
RTVSPost2010PropOp50
 70
     1
102
RTVSPost2010Prop51ColorIndex
 90
      256
102
RTVSPost2010Prop51ColorRGB
 90
-16777216
102
RTVSPost2010PropOp51
 70
     0
102
RTVSPost2010Prop52
140
1.0
102
RTVSPost2010PropOp52
 70
     0
102
RTVSPost2010Prop53
 90
        2
102
RTVSPost2010PropOp53
 70
     1
102
RTVSPost2010Prop54
  1
strokes_ogs.tif
102
RTVSPost2010PropOp54
 70
     1
102
RTVSPost2010Prop55
280
     0
102
RTVSPost2010PropOp55
 70
     1
102
RTVSPost2010Prop56
140
1.0
102
RTVSPost2010PropOp56
 70
     1
102
RTVSPost2010Prop57
140
1.0
102
RTVSPost2010PropOp57
 70
     1
  0
XRECORD
  5
D6
102
{ACAD_REACTORS
330
D5
102
}
330
D5
100
AcDbXrecord
280
     1
102
RTVSPost2010Prop28
280
     0
102
RTVSPost2010PropOp28
 70
     1
102
RTVSPost2010Prop29
280
     1
102
RTVSPost2010PropOp29
 70
     1
102
RTVSPost2010Prop30
280
     1
102
RTVSPost2010PropOp30
 70
     1
102
RTVSPost2010Prop31
280
     0
102
RTVSPost2010PropOp31
 70
     1
102
RTVSPost2010Prop32
280
     0
102
RTVSPost2010PropOp32
 70
     1
102
RTVSPost2010Prop33
280
     0
102
RTVSPost2010PropOp33
 70
     1
102
RTVSPost2010Prop34
280
     0
102
RTVSPost2010PropOp34
 70
     1
102
RTVSPost2010Prop35
280
     0
102
RTVSPost2010PropOp35
 70
     1
102
RTVSPost2010Prop36
280
     0
102
RTVSPost2010PropOp36
 70
     1
102
RTVSPost2010Prop37
 90
       50
102
RTVSPost2010PropOp37
 70
     1
102
RTVSPost2010Prop38
140
0.0
102
RTVSPost2010PropOp38
 70
     1
102
RTVSPost2010Prop39
140
1.0
102
RTVSPost2010PropOp39
 70
     1
102
RTVSPost2010Prop40
 90
        0
102
RTVSPost2010PropOp40
 70
     1
102
RTVSPost2010Prop41ColorIndex
 90
       18
102
RTVSPost2010Prop41ColorRGB
 90
        0
102
RTVSPost2010PropOp41
 70
     1
102
RTVSPost2010Prop42
 90
       50
102
RTVSPost2010PropOp42
 70
     1
102
RTVSPost2010Prop43
 90
        3
102
RTVSPost2010PropOp43
 70
     1
102
RTVSPost2010Prop44ColorIndex
 90
        5
102
RTVSPost2010Prop44ColorRGB
 90
      255
102
RTVSPost2010PropOp44
 70
     1
102
RTVSPost2010Prop45
280
     0
102
RTVSPost2010PropOp45
 70
     1
102
RTVSPost2010Prop46
 90
       50
102
RTVSPost2010PropOp46
 70
     1
102
RTVSPost2010Prop47
 90
       50
102
RTVSPost2010PropOp47
 70
     1
102
RTVSPost2010Prop48
 90
       50
102
RTVSPost2010PropOp48
 70
     1
102
RTVSPost2010Prop49
280
     0
102
RTVSPost2010PropOp49
 70
     1
102
RTVSPost2010Prop50
 90
       50
102
RTVSPost2010PropOp50
 70
     1
102
RTVSPost2010Prop51ColorIndex
 90
      256
102
RTVSPost2010Prop51ColorRGB
 90
-16777216
102
RTVSPost2010PropOp51
 70
     0
102
RTVSPost2010Prop52
140
1.0
102
RTVSPost2010PropOp52
 70
     0
102
RTVSPost2010Prop53
 90
        2
102
RTVSPost2010PropOp53
 70
     1
102
RTVSPost2010Prop54
  1
strokes_ogs.tif
102
RTVSPost2010PropOp54
 70
     1
102
RTVSPost2010Prop55
280
     0
102
RTVSPost2010PropOp55
 70
     1
102
RTVSPost2010Prop56
140
1.0
102
RTVSPost2010PropOp56
 70
     1
102
RTVSPost2010Prop57
140
1.0
102
RTVSPost2010PropOp57
 70
     1
  0
XRECORD
  5
EE
102
{ACAD_REACTORS
330
ED
102
}
330
ED
100
AcDbXrecord
280
     1
102
RTVSPost2010Prop28
280
     0
102
RTVSPost2010PropOp28
 70
     1
102
RTVSPost2010Prop29
280
     1
102
RTVSPost2010PropOp29
 70
     1
102
RTVSPost2010Prop30
280
     1
102
RTVSPost2010PropOp30
 70
     1
102
RTVSPost2010Prop31
280
     0
102
RTVSPost2010PropOp31
 70
     1
102
RTVSPost2010Prop32
280
     0
102
RTVSPost2010PropOp32
 70
     1
102
RTVSPost2010Prop33
280
     0
102
RTVSPost2010PropOp33
 70
     1
102
RTVSPost2010Prop34
280
     0
102
RTVSPost2010PropOp34
 70
     1
102
RTVSPost2010Prop35
280
     0
102
RTVSPost2010PropOp35
 70
     1
102
RTVSPost2010Prop36
280
     0
102
RTVSPost2010PropOp36
 70
     1
102
RTVSPost2010Prop37
 90
       50
102
RTVSPost2010PropOp37
 70
     1
102
RTVSPost2010Prop38
140
0.0
102
RTVSPost2010PropOp38
 70
     1
102
RTVSPost2010Prop39
140
1.0
102
RTVSPost2010PropOp39
 70
     1
102
RTVSPost2010Prop40
 90
        0
102
RTVSPost2010PropOp40
 70
     1
102
RTVSPost2010Prop41ColorIndex
 90
       18
102
RTVSPost2010Prop41ColorRGB
 90
        0
102
RTVSPost2010PropOp41
 70
     1
102
RTVSPost2010Prop42
 90
       50
102
RTVSPost2010PropOp42
 70
     1
102
RTVSPost2010Prop43
 90
        3
102
RTVSPost2010PropOp43
 70
     1
102
RTVSPost2010Prop44ColorIndex
 90
        5
102
RTVSPost2010Prop44ColorRGB
 90
      255
102
RTVSPost2010PropOp44
 70
     1
102
RTVSPost2010Prop45
280
     0
102
RTVSPost2010PropOp45
 70
     1
102
RTVSPost2010Prop46
 90
       50
102
RTVSPost2010PropOp46
 70
     1
102
RTVSPost2010Prop47
 90
       50
102
RTVSPost2010PropOp47
 70
     1
102
RTVSPost2010Prop48
 90
       50
102
RTVSPost2010PropOp48
 70
     1
102
RTVSPost2010Prop49
280
     0
102
RTVSPost2010PropOp49
 70
     1
102
RTVSPost2010Prop50
 90
       50
102
RTVSPost2010PropOp50
 70
     1
102
RTVSPost2010Prop51ColorIndex
 90
      256
102
RTVSPost2010Prop51ColorRGB
 90
-16777216
102
RTVSPost2010PropOp51
 70
     0
102
RTVSPost2010Prop52
140
1.0
102
RTVSPost2010PropOp52
 70
     0
102
RTVSPost2010Prop53
 90
        2
102
RTVSPost2010PropOp53
 70
     1
102
RTVSPost2010Prop54
  1
strokes_ogs.tif
102
RTVSPost2010PropOp54
 70
     1
102
RTVSPost2010Prop55
280
     0
102
RTVSPost2010PropOp55
 70
     1
102
RTVSPost2010Prop56
140
1.0
102
RTVSPost2010PropOp56
 70
     1
102
RTVSPost2010Prop57
140
1.0
102
RTVSPost2010PropOp57
 70
     1
  0
ENDSEC
  0
EOF
