0
SECTION
2
HEADER
9
$INSUNITS
70
4
9
$ACADVER
1
AC1014
9
$HANDSEED
5
FFFF
0
ENDSEC
0
SECTION
2
TABLES
0
TABLE
2
VPORT
5
8
100
AcDbSymbolTable
0
ENDTAB
0
TABLE
2
LTYPE
5
5
100
AcDbSymbolTable
0
LTYPE
5
14
100
AcDbSymbolTableRecord
100
AcDbLinetypeTableRecord
2
BYBLOCK
70
0
0
LTYPE
5
15
100
AcDbSymbolTableRecord
100
AcDbLinetypeTableRecord
2
BYLAYER
70
0
0
ENDTAB
0
TABLE
2
LAYER
5
2
100
AcDbSymbolTable
70
2
0
LAYER
5
50
100
AcDbSymbolTableRecord
100
AcDbLayerTableRecord
2
0
70
0
6
CONTINUOUS
0
ENDTAB
0
TABLE
2
STYLE
5
3
100
AcDbSymbolTable
70
1
0
STYLE
5
11
100
AcDbSymbolTableRecord
100
AcDbTextStyleTableRecord
2
STANDARD
70
0
0
ENDTAB
0
TABLE
2
VIEW
5
6
100
AcDbSymbolTable
70
0
0
ENDTAB
0
TABLE
2
UCS
5
7
100
AcDbSymbolTable
70
0
0
ENDTAB
0
TABLE
2
APPID
5
9
100
AcDbSymbolTable
70
2
0
APPID
5
12
100
AcDbSymbolTableRecord
100
AcDbRegAppTableRecord
2
ACAD
70
0
0
ENDTAB
0
TABLE
2
DIMSTYLE
5
A
100
AcDbSymbolTable
70
1
0
ENDTAB
0
TABLE
2
BLOCK_RECORD
5
1
100
AcDbSymbolTable
70
1
0
BLOCK_RECORD
5
1F
100
AcDbSymbolTableRecord
100
AcDbBlockTableRecord
2
*MODEL_SPACE
0
BLOCK_RECORD
5
1B
100
AcDbSymbolTableRecord
100
AcDbBlockTableRecord
2
*PAPER_SPACE
0
ENDTAB
0
ENDSEC
0
SECTION
2
BLOCKS
0
BLOCK
5
20
100
AcDbEntity
100
AcDbBlockBegin
2
*MODEL_SPACE
0
ENDBLK
5
21
100
AcDbEntity
100
AcDbBlockEnd
0
BLOCK
5
1C
100
AcDbEntity
100
AcDbBlockBegin
2
*PAPER_SPACE
0
ENDBLK
5
1D
100
AcDbEntity
100
AcDbBlockEnd
0
ENDSEC
0
SECTION
2
ENTITIES
0
LWPOLYLINE
5
100
100
AcDbEntity
8
0
100
AcDbPolyline
90
8
70
1
43
0.0
10
0
20
0
10
0
20
-50
10
-22.464999999999957
20
-50
10
-22.464999999999982
20
-25.274999999999999
10
-27.534999999999954
20
-25.274999999999999
10
-27.534999999999954
20
-50
10
-50
20
-50
10
-50
20
0
0
LWPOLYLINE
5
101
100
AcDbEntity
8
0
100
AcDbPolyline
90
4
70
1
43
0.0
10
-220.13750000000002
20
-60.414999999999992
10
-220.13750000000002
20
-55.344999999999999
10
-229.86249999999998
20
-55.344999999999999
10
-229.86249999999998
20
-60.414999999999992
0
LWPOLYLINE
5
102
100
AcDbEntity
8
0
100
AcDbPolyline
90
10
70
1
43
0.0
10
-235.06999999999999
20
-60.414999999999992
10
-235.06999999999999
20
-49.999999999999901
10
-250
20
-50
10
-250
20
0
10
-200
20
0
10
-200
20
-50
10
-214.93000000000001
20
-50
10
-214.93000000000001
20
-60.414999999999992
42
-0.41421356237309509
10
-220.27500000000003
20
-65.759999999999991
10
-229.72499999999997
20
-65.760000000000005
42
-0.41421356237309509
0
LWPOLYLINE
5
103
100
AcDbEntity
8
0
100
AcDbPolyline
90
4
70
1
43
0.0
10
-314.92999999999995
20
-22.465000000000003
10
-335.06999999999994
20
-22.465000000000003
10
-335.06999999999994
20
-27.535000000000004
10
-314.92999999999995
20
-27.535000000000004
0
LWPOLYLINE
5
104
100
AcDbEntity
8
0
100
AcDbPolyline
90
4
70
1
43
0.0
10
-300
20
0
10
-300
20
-50
10
-350
20
-50
10
-350
20
0
0
LWPOLYLINE
5
105
100
AcDbEntity
8
0
100
AcDbPolyline
90
4
70
1
43
0.0
10
-312.32749999999999
20
-75
10
-312.3275000000001
20
-85.275000000000006
10
-337.67250000000035
20
-85.275000000000006
10
-337.67250000000013
20
-75
0
LINE
5
106
100
AcDbEntity
8
0
100
AcDbLine
10
-400
20
-50.000000000000007
30
0
11
-400
21
-8.8817841970012523e-15
31
0
0
LINE
5
107
100
AcDbEntity
8
0
100
AcDbLine
10
-400
20
-8.8817841970012523e-15
30
0
11
-422.46499999999997
21
-1.7763568394002505e-14
31
0
0
LINE
5
108
100
AcDbEntity
8
0
100
AcDbLine
10
-422.46499999999997
20
-1.7763568394002505e-14
30
0
11
-422.46499999999997
21
-2.5000000000000711
31
0
0
LINE
5
109
100
AcDbEntity
8
0
100
AcDbLine
10
-422.46499999999997
20
-2.5000000000000711
30
0
11
-427.53499999999997
21
-2.5000000000000622
31
0
0
LINE
5
110
100
AcDbEntity
8
0
100
AcDbLine
10
-427.53499999999997
20
-2.5000000000000622
30
0
11
-427.53499999999997
21
-6.2172489379008766e-14
31
0
0
LINE
5
111
100
AcDbEntity
8
0
100
AcDbLine
10
-427.53499999999997
20
-6.2172489379008766e-14
30
0
11
-450
21
-2.6645352591003757e-14
31
0
0
LINE
5
112
100
AcDbEntity
8
0
100
AcDbLine
10
-450
20
-2.6645352591003757e-14
30
0
11
-450
21
-50.000000000000064
31
0
0
LINE
5
113
100
AcDbEntity
8
0
100
AcDbLine
10
-450
20
-50.000000000000064
30
0
11
-427.53499999999997
21
-50.000000000000483
31
0
0
ARC
5
114
100
AcDbEntity
8
0
100
AcDbCircle
10
-427.53500000000003
20
-48.750000000000483
30
0
40
1.25
210
0
220
0
230
1
100
AcDbArc
50
-89.999999999997399
51
90.000000000002615
0
LINE
5
115
100
AcDbEntity
8
0
100
AcDbLine
10
-427.53500000000008
20
-47.500000000000483
30
0
11
-427.53499999999997
21
-25.137500000000035
31
0
0
LINE
5
116
100
AcDbEntity
8
0
100
AcDbLine
10
-427.53499999999997
20
-25.137500000000035
30
0
11
-422.46499999999997
21
-25.137500000000088
31
0
0
LINE
5
117
100
AcDbEntity
8
0
100
AcDbLine
10
-422.46499999999997
20
-25.137500000000088
30
0
11
-422.46499999999997
21
-47.500000000000107
31
0
0
ARC
5
118
100
AcDbEntity
8
0
100
AcDbCircle
10
-422.46499999999997
20
-48.750000000000107
30
0
40
1.25
210
0
220
-0
230
1
100
AcDbArc
50
90
51
270
0
LINE
5
119
100
AcDbEntity
8
0
100
AcDbLine
10
-422.46499999999997
20
-50.000000000000107
30
0
11
-400
21
-50.000000000000007
31
0
0
LWPOLYLINE
5
120
100
AcDbEntity
8
0
100
AcDbPolyline
90
14
70
1
43
0.0
10
-100
20
0
10
-100
20
-50
10
-108.60833333333333
20
-50
10
-108.60833333333333
20
-44.930000000000007
10
-116.66666666666669
20
-44.930000000000014
10
-116.66666666666669
20
-50
10
-125.27500000000003
20
-50
10
-125.27499999999976
20
-44.930000000000007
10
-133.33333333333312
20
-44.930000000000007
10
-133.33333333333331
20
-50
10
-141.94166666666666
20
-50
10
-141.94166666666666
20
-44.930000000000007
10
-150
20
-44.930000000000007
10
-150
20
0
0
ENDSEC
0
SECTION
2
OBJECTS
0
DICTIONARY
5
C
100
AcDbDictionary
3
ACAD_GROUP
350
D
3
ACAD_MLINESTYLE
350
17
0
DICTIONARY
5
D
100
AcDbDictionary
0
DICTIONARY
5
1A
330
C
100
AcDbDictionary
0
DICTIONARY
5
17
100
AcDbDictionary
0
ENDSEC
0
EOF
