0
SECTION
2
HEADER
9
$INSUNITS
70
4
9
$ACADVER
1
AC1014
9
$HANDSEED
5
FFFF
0
ENDSEC
0
SECTION
2
TABLES
0
TABLE
2
VPORT
5
8
100
AcDbSymbolTable
0
ENDTAB
0
TABLE
2
LTYPE
5
5
100
AcDbSymbolTable
0
LTYPE
5
14
100
AcDbSymbolTableRecord
100
AcDbLinetypeTableRecord
2
BYBLOCK
70
0
0
LTYPE
5
15
100
AcDbSymbolTableRecord
100
AcDbLinetypeTableRecord
2
BYLAYER
70
0
0
ENDTAB
0
TABLE
2
LAYER
5
2
100
AcDbSymbolTable
70
2
0
LAYER
5
50
100
AcDbSymbolTableRecord
100
AcDbLayerTableRecord
2
0
70
0
6
CONTINUOUS
0
ENDTAB
0
TABLE
2
STYLE
5
3
100
AcDbSymbolTable
70
1
0
STYLE
5
11
100
AcDbSymbolTableRecord
100
AcDbTextStyleTableRecord
2
STANDARD
70
0
0
ENDTAB
0
TABLE
2
VIEW
5
6
100
AcDbSymbolTable
70
0
0
ENDTAB
0
TABLE
2
UCS
5
7
100
AcDbSymbolTable
70
0
0
ENDTAB
0
TABLE
2
APPID
5
9
100
AcDbSymbolTable
70
2
0
APPID
5
12
100
AcDbSymbolTableRecord
100
AcDbRegAppTableRecord
2
ACAD
70
0
0
ENDTAB
0
TABLE
2
DIMSTYLE
5
A
100
AcDbSymbolTable
70
1
0
ENDTAB
0
TABLE
2
BLOCK_RECORD
5
1
100
AcDbSymbolTable
70
1
0
BLOCK_RECORD
5
1F
100
AcDbSymbolTableRecord
100
AcDbBlockTableRecord
2
*MODEL_SPACE
0
BLOCK_RECORD
5
1B
100
AcDbSymbolTableRecord
100
AcDbBlockTableRecord
2
*PAPER_SPACE
0
ENDTAB
0
ENDSEC
0
SECTION
2
BLOCKS
0
BLOCK
5
20
100
AcDbEntity
100
AcDbBlockBegin
2
*MODEL_SPACE
0
ENDBLK
5
21
100
AcDbEntity
100
AcDbBlockEnd
0
BLOCK
5
1C
100
AcDbEntity
100
AcDbBlockBegin
2
*PAPER_SPACE
0
ENDBLK
5
1D
100
AcDbEntity
100
AcDbBlockEnd
0
ENDSEC
0
SECTION
2
ENTITIES
0
LWPOLYLINE
5
100
100
AcDbEntity
8
0
100
AcDbPolyline
90
18
70
1
43
0.0
10
25
20
2.5000000000000009
42
-0.4142135623730952
10
22.5
20
8.3266726846886741e-16
10
19.166666666666671
20
2.2204460492503131e-15
42
-0.41421356237309526
10
16.666666666666671
20
2.5000000000000022
10
16.666666666666675
20
7.4999999999999956
42
0.41421356237309492
10
14.166666666666677
20
9.9999999999999964
10
10.833333333333341
20
9.9999999999999982
42
0.41421356237309509
10
8.3333333333333375
20
7.5000000000000009
10
8.3333333333333321
20
2.4999999999999987
42
-0.41421356237309453
10
5.8333333333333339
20
3.1301532049434251e-16
10
2.5
20
0
42
-0.41421356237309492
10
-2.5513474982236489e-17
20
2.5
10
2.2204460492503131e-15
20
20.000632832523848
42
-0.41092226983050195
10
9.8874999999999993
20
30
10
9.8875000000000064
20
19.999999999999996
10
15.112500000000011
20
19.999999999999996
10
15.112500000000001
20
30.000000000000004
42
-0.4109222698305019
10
25
20
20.000632832523848
0
LWPOLYLINE
5
101
100
AcDbEntity
8
0
100
AcDbPolyline
90
18
70
1
43
0.0
10
52.5
20
-2.2204460492503131e-15
42
-0.4142135623730932
10
50
20
2.5
10
49.999999999999993
20
30.000632832523856
42
-0.41092226983050112
10
59.887499999999996
20
40
10
59.887500000000003
20
30.274999999999999
10
65.112500000000011
20
30.274999999999999
10
65.112499999999997
20
40.000000000000014
42
-0.41092226983050223
10
75
20
30.00063283252387
10
75
20
2.5000000000000138
42
-0.41421356237309337
10
72.5
20
1.1990408665951689e-14
10
69.166666666666657
20
1.5543122344752192e-14
42
-0.4142135623730932
10
66.666666666666671
20
2.5000000000000089
10
66.666666666666657
20
17.500000000000004
42
0.41421356237309476
10
64.166666666666657
20
20
10
60.833333333333329
20
20
42
0.41421356237309509
10
58.333333333333329
20
17.5
10
58.333333333333329
20
2.5
42
-0.41421356237309331
10
55.833333333333329
20
5.5026671565732098e-16
0
LWPOLYLINE
5
102
100
AcDbEntity
8
0
100
AcDbPolyline
90
18
70
1
43
0.0
10
102.5
20
1.4988010832439613e-14
42
-0.41421356237309431
10
100
20
2.5000000000000089
10
100
20
40.000632832523863
42
-0.41092226983050129
10
109.88749999999999
20
50.000000000000007
10
109.88749999999999
20
40.275000000000006
10
115.11250000000001
20
40.275000000000006
10
115.11250000000003
20
49.999999999999993
42
-0.41092226983050056
10
125
20
40.000632832523848
10
125
20
2.5000000000000107
42
-0.41421356237309437
10
122.5
20
9.6589403142388619e-15
10
119.16666666666666
20
-2.2204460492503131e-15
42
-0.41421356237309215
10
116.66666666666666
20
2.5000000000000089
10
116.66666666666666
20
27.500000000000007
42
0.41421356237309509
10
114.16666666666666
20
30.000000000000007
10
110.83333333333334
20
30.000000000000007
42
0.41421356237309509
10
108.33333333333334
20
27.500000000000007
10
108.33333333333331
20
2.5000000000000098
42
-0.41421356237309226
10
105.83333333333334
20
9.735638038433066e-15
0
LWPOLYLINE
5
103
100
AcDbEntity
8
0
100
AcDbPolyline
90
23
70
1
43
0.0
10
194
20
10.000000000000043
42
-0.41421356237309437
10
189
20
15.000000000000032
10
189
20
27.500000000000028
42
-0.41421356237310181
10
191.5
20
30.000000000000028
10
194.77499999999998
20
30.000000000000021
10
194.77499999999998
20
20.27500000000002
10
200
20
20.27500000000002
10
200
20
30.000000000000018
10
265
20
30.000000000000032
42
-0.41421356237309337
10
275
20
20.000000000000018
10
275
20
5.000000000000032
42
-0.41421356237309437
10
270
20
3.0221349775177955e-14
10
264.72500000000002
20
3.9968028886505635e-14
10
264.72500000000002
20
9.7250000000000334
10
259.5
20
9.7250000000000281
10
259.5
20
3.5527136788005009e-14
10
215.5
20
2.6645352591003757e-14
10
215.5
20
9.7250000000000227
10
210.27500000000001
20
9.7250000000000192
10
210.27500000000001
20
2.2204460492503131e-14
10
205
20
3.1086244689504383e-14
42
-0.41421356237309426
10
200
20
5.0000000000000178
10
200
20
10.000000000000039
0
LWPOLYLINE
5
104
100
AcDbEntity
8
0
100
AcDbPolyline
90
24
70
1
43
0.0
10
294.00000000000006
20
15.275000000000061
42
-0.41421356237309448
10
289.00000000000006
20
20.275000000000052
10
289.00000000000011
20
32.775000000000048
42
-0.41421356237309864
10
291.50000000000011
20
35.275000000000041
10
294.77500000000009
20
35.27500000000002
10
294.77499999999998
20
25.550000000000061
10
300
20
25.550000000000018
10
300
20
40.000000000000014
42
-0.41421356237309298
10
310
20
50.000000000000028
10
340
20
49.999999999999986
42
-0.41421356237309404
10
350
20
40.000000000000014
10
350
20
5.0000000000000453
42
-0.41421356237310214
10
345
20
4.2619895751311914e-14
10
339.72499999999997
20
5.773159728050814e-14
10
339.72499999999997
20
9.7249999999999091
10
334.49999999999994
20
9.7249999999999392
10
334.5
20
5.773159728050814e-14
10
315.5
20
5.3290705182007514e-14
10
315.5
20
9.7250000000000512
10
310.27499999999998
20
9.7250000000000227
10
310.27500000000003
20
5.3290705182007514e-14
10
305
20
5.1070259132757201e-14
42
-0.41421356237309426
10
300
20
5.0000000000000373
10
300
20
15.275000000000055
0
LWPOLYLINE
5
105
100
AcDbEntity
8
0
100
AcDbPolyline
90
12
70
1
43
0.0
10
427.92893218813458
20
6.9585678118653718
42
-0.19891236737966678
10
425
20
14.029635623730915
10
425
20
33.333333333333364
10
433.33333333333343
20
25.000000000000032
10
441.66666666666663
20
25.000000000000032
10
449.99999999999994
20
33.33333333333335
10
450
20
14.029635623731062
42
-0.1989123673796617
10
447.07106781186548
20
6.9585678118656382
10
440.11249999999995
20
1.021405182655144e-13
10
440.11249999999995
20
9.7250000000000831
10
434.88749999999993
20
9.7250000000000831
10
434.88750000000005
20
8.2156503822261584e-14
0
CIRCLE
5
106
100
AcDbEntity
8
0
100
AcDbCircle
10
443.75
20
17.500000000000028
30
0
40
3.75
210
0
220
0
230
1
0
CIRCLE
5
107
100
AcDbEntity
8
0
100
AcDbCircle
10
431.25
20
17.500000000000028
30
0
40
3.75
210
0
220
0
230
1
0
LWPOLYLINE
5
108
100
AcDbEntity
8
0
100
AcDbPolyline
90
30
70
1
43
0.0
10
475.70087349206824
20
10.727879918917292
42
-0.094434490052265493
10
475
20
14.405684452804358
10
475
20
25.000000000000018
10
458.22499999999997
20
41.774999999999885
10
458.22500000000014
20
57.442083322699354
10
464
20
51.667083322699241
10
463.99999999999977
20
44.167083322699241
10
469.22500000000002
20
38.942083322701741
10
469.22500000000002
20
46.442083322698871
10
475
20
40.667083322699185
10
475
20
33.16708332270457
10
483.16708332270139
20
25.000000000000085
10
491.83291667729623
20
25.000000000000075
10
500
20
33.167083322703867
10
500
20
40.667083322699625
10
505.77499999999986
20
46.442083322699439
10
505.7749999999993
20
38.94208332270032
10
510.99999999999881
20
44.167083322698545
10
510.99999999999881
20
51.667083322698545
10
516.77499999999884
20
57.442083322698565
10
516.77499999999884
20
41.774999999998037
10
500
20
25
10
500.00000000000006
20
14.405684452804472
42
-0.094434490052267728
10
499.29912650793187
20
10.727879918917399
10
495.05624999999998
20
7.5495165674510645e-14
10
490.11250000000007
20
6.4392935428259079e-14
10
490.11249999999995
20
10.892694000000049
10
484.88749999999993
20
10.892694000000045
10
484.88749999999993
20
5.3290705182007514e-14
10
479.94375000000002
20
4.2188474935755949e-14
0
CIRCLE
5
109
100
AcDbEntity
8
0
100
AcDbCircle
10
493.75
20
17.500000000000014
30
0
40
2.5
210
0
220
0
230
1
0
CIRCLE
5
110
100
AcDbEntity
8
0
100
AcDbCircle
10
481.25
20
17.500000000000014
30
0
40
2.5
210
0
220
0
230
1
0
ENDSEC
0
SECTION
2
OBJECTS
0
DICTIONARY
5
C
100
AcDbDictionary
3
ACAD_GROUP
350
D
3
ACAD_MLINESTYLE
350
17
0
DICTIONARY
5
D
100
AcDbDictionary
0
DICTIONARY
5
1A
330
C
100
AcDbDictionary
0
DICTIONARY
5
17
100
AcDbDictionary
0
ENDSEC
0
EOF
