  0
SECTION
  2
HEADER
  9
$ACADVER
  1
AC1009
  9
$DWGCODEPAGE
  3
ansi_1252
  9
$INSBASE
 10
0.0
 20
0.0
 30
0.0
  9
$EXTMIN
 10
1.000000000000000E+20
 20
1.000000000000000E+20
 30
1.000000000000000E+20
  9
$EXTMAX
 10
-1.000000000000000E+20
 20
-1.000000000000000E+20
 30
-1.000000000000000E+20
  9
$LIMMIN
 10
0.0
 20
0.0
  9
$LIMMAX
 10
12.0
 20
9.0
  9
$ORTHOMODE
 70
     0
  9
$REGENMODE
 70
     1
  9
$FILLMODE
 70
     1
  9
$QTEXTMODE
 70
     0
  9
$MIRRTEXT
 70
     1
  9
$DRAGMODE
 70
     2
  9
$LTSCALE
 40
1.0
  9
$OSMODE
 70
    37
  9
$ATTMODE
 70
     1
  9
$TEXTSIZE
 40
0.2
  9
$TRACEWID
 40
0.05
  9
$TEXTSTYLE
  7
STANDARD
  9
$CLAYER
  8
PREDETERMINADA
  9
$CELTYPE
  6
BYLAYER
  9
$CECOLOR
 62
   256
  9
$DIMSCALE
 40
1.0
  9
$DIMASZ
 40
0.18
  9
$DIMEXO
 40
0.0625
  9
$DIMDLI
 40
0.38
  9
$DIMRND
 40
0.0
  9
$DIMDLE
 40
0.0
  9
$DIMEXE
 40
0.18
  9
$DIMTP
 40
0.0
  9
$DIMTM
 40
0.0
  9
$DIMTXT
 40
0.18
  9
$DIMCEN
 40
0.09
  9
$DIMTSZ
 40
0.0
  9
$DIMTOL
 70
     0
  9
$DIMLIM
 70
     0
  9
$DIMTIH
 70
     1
  9
$DIMTOH
 70
     1
  9
$DIMSE1
 70
     0
  9
$DIMSE2
 70
     0
  9
$DIMTAD
 70
     0
  9
$DIMZIN
 70
     0
  9
$DIMBLK
  1

  9
$DIMASO
 70
     1
  9
$DIMSHO
 70
     1
  9
$DIMPOST
  1

  9
$DIMAPOST
  1

  9
$DIMALT
 70
     0
  9
$DIMALTD
 70
     2
  9
$DIMALTF
 40
25.4
  9
$DIMLFAC
 40
1.0
  9
$DIMTOFL
 70
     0
  9
$DIMTVP
 40
0.0
  9
$DIMTIX
 70
     0
  9
$DIMSOXD
 70
     0
  9
$DIMSAH
 70
     0
  9
$DIMBLK1
  1

  9
$DIMBLK2
  1

  9
$DIMSTYLE
  2
STANDARD_ACAD
  9
$DIMCLRD
 70
     0
  9
$DIMCLRE
 70
     0
  9
$DIMCLRT
 70
     0
  9
$DIMTFAC
 40
1.0
  9
$DIMGAP
 40
0.09
  9
$LUNITS
 70
     2
  9
$LUPREC
 70
     3
  9
$SKETCHINC
 40
0.1
  9
$FILLETRAD
 40
0.5
  9
$AUNITS
 70
     0
  9
$AUPREC
 70
     0
  9
$MENU
  1
.
  9
$ELEVATION
 40
0.0
  9
$PELEVATION
 40
0.0
  9
$THICKNESS
 40
0.0
  9
$LIMCHECK
 70
     0
  9
$CHAMFERA
 40
0.0
  9
$CHAMFERB
 40
0.0
  9
$SKPOLY
 70
     0
  9
$TDCREATE
 40
2459362.539491597
  9
$TDUPDATE
 40
2459362.539504329
  9
$TDINDWG
 40
0.0000000116
  9
$TDUSRTIMER
 40
0.0000000116
  9
$USRTIMER
 70
     1
  9
$ANGBASE
 50
0.0
  9
$ANGDIR
 70
     0
  9
$PDMODE
 70
     0
  9
$PDSIZE
 40
0.0
  9
$PLINEWID
 40
0.0
  9
$COORDS
 70
     1
  9
$SPLFRAME
 70
     0
  9
$SPLINETYPE
 70
     6
  9
$SPLINESEGS
 70
     8
  9
$ATTDIA
 70
     0
  9
$ATTREQ
 70
     1
  9
$HANDLING
 70
     1
  9
$HANDSEED
  5
C8
  9
$SURFTAB1
 70
     6
  9
$SURFTAB2
 70
     6
  9
$SURFTYPE
 70
     6
  9
$SURFU
 70
     6
  9
$SURFV
 70
     6
  9
$UCSNAME
  2

  9
$UCSORG
 10
0.0
 20
0.0
 30
0.0
  9
$UCSXDIR
 10
1.0
 20
0.0
 30
0.0
  9
$UCSYDIR
 10
0.0
 20
1.0
 30
0.0
  9
$PUCSNAME
  2

  9
$PUCSORG
 10
0.0
 20
0.0
 30
0.0
  9
$PUCSXDIR
 10
1.0
 20
0.0
 30
0.0
  9
$PUCSYDIR
 10
0.0
 20
1.0
 30
0.0
  9
$USERI1
 70
     0
  9
$USERI2
 70
     0
  9
$USERI3
 70
     0
  9
$USERI4
 70
     0
  9
$USERI5
 70
     0
  9
$USERR1
 40
0.0
  9
$USERR2
 40
0.0
  9
$USERR3
 40
0.0
  9
$USERR4
 40
0.0
  9
$USERR5
 40
0.0
  9
$WORLDVIEW
 70
     1
  9
$SHADEDGE
 70
     3
  9
$SHADEDIF
 70
    70
  9
$TILEMODE
 70
     1
  9
$MAXACTVP
 70
    64
  9
$PLIMCHECK
 70
     0
  9
$PEXTMIN
 10
1.000000000000000E+20
 20
1.000000000000000E+20
 30
1.000000000000000E+20
  9
$PEXTMAX
 10
-1.000000000000000E+20
 20
-1.000000000000000E+20
 30
-1.000000000000000E+20
  9
$PLIMMIN
 10
0.0
 20
0.0
  9
$PLIMMAX
 10
12.0
 20
9.0
  9
$UNITMODE
 70
     0
  9
$VISRETAIN
 70
     1
  9
$PLINEGEN
 70
     0
  9
$PSLTSCALE
 70
     1
  0
ENDSEC
  0
SECTION
  2
TABLES
  0
TABLE
  2
VPORT
 70
     1
  0
VPORT
  2
*ACTIVE
 70
     0
 10
0.0
 20
0.0
 11
1.0
 21
1.0
 12
10.42990654205607
 22
4.5
 13
0.0
 23
0.0
 14
0.5
 24
0.5
 15
0.5
 25
0.5
 16
0.0
 26
0.0
 36
1.0
 17
0.0
 27
0.0
 37
0.0
 40
9.0
 41
1.972972972850329
 42
50.0
 43
0.0
 44
0.0
 50
0.0
 51
0.0
 71
     0
 72
   100
 73
     1
 74
     3
 75
     0
 76
     0
 77
     0
 78
     0
  0
ENDTAB
  0
TABLE
  2
LTYPE
 70
     1
  0
LTYPE
  2
CONTINUOUS
 70
     0
  3
Solid line
 72
    65
 73
     0
 40
0.0
  0
ENDTAB
  0
TABLE
  2
LAYER
 70
     4
  0
LAYER
  2
0
 70
     0
 62
     7
  6
CONTINUOUS
  0
LAYER
  2
MAKE2D$VISIBLE$CURVAS$PRED
 70
     0
 62
     7
  6
CONTINUOUS
  0
LAYER
  2
MAKE2D$VISIBLE$CURVASDESIL
 70
     0
 62
     7
  6
CONTINUOUS
  0
LAYER
  2
PREDETERMINADA
 70
     0
 62
     7
  6
CONTINUOUS
  0
ENDTAB
  0
TABLE
  2
STYLE
 70
     1
  0
STYLE
  2
STANDARD
 70
     0
 40
0.0
 41
1.0
 50
0.0
 71
     0
 42
0.2
  3
txt
  4

  0
ENDTAB
  0
TABLE
  2
VIEW
 70
     0
  0
ENDTAB
  0
TABLE
  2
UCS
 70
     0
  0
ENDTAB
  0
TABLE
  2
APPID
 70
     1
  0
APPID
  2
ACAD
 70
     0
  0
ENDTAB
  0
TABLE
  2
DIMSTYLE
 70
     1
  0
DIMSTYLE
  2
STANDARD_ACAD
 70
     0
  3

  4

  5

  6

  7

 40
1.0
 41
0.18
 42
0.0625
 43
0.38
 44
0.18
 45
0.0
 46
0.0
 47
0.0
 48
0.0
140
0.18
141
0.09
142
0.0
143
25.4
144
1.0
145
0.0
146
1.0
147
0.09
 71
     0
 72
     0
 73
     1
 74
     1
 75
     0
 76
     0
 77
     0
 78
     0
170
     0
171
     2
172
     0
173
     0
174
     0
175
     0
176
     0
177
     0
178
     0
  0
ENDTAB
  0
ENDSEC
  0
SECTION
  2
BLOCKS
  0
BLOCK
  8
0
  2
$MODEL_SPACE
 70
     0
 10
0.0
 20
0.0
 30
0.0
  3
$MODEL_SPACE
  1

  0
ENDBLK
  5
21
  8
0
  0
BLOCK
 67
     1
  8
0
  2
$PAPER_SPACE
 70
     0
 10
0.0
 20
0.0
 30
0.0
  3
$PAPER_SPACE
  1

  0
ENDBLK
  5
1D
 67
     1
  8
0
  0
ENDSEC
  0
SECTION
  2
ENTITIES
  0
LINE
  5
6F
  8
MAKE2D$VISIBLE$CURVAS$PRED
 10
46.32537780154121
 20
256.4259521586189
 30
0.0
 11
46.32537780154121
 21
276.4259521586189
 31
0.0
  0
LINE
  5
70
  8
MAKE2D$VISIBLE$CURVAS$PRED
 10
46.32537780154121
 20
276.4259521586189
 30
0.0
 11
58.32537780154121
 21
276.4259521586189
 31
0.0
  0
LINE
  5
71
  8
MAKE2D$VISIBLE$CURVAS$PRED
 10
58.32537780154121
 20
276.4259521586189
 30
0.0
 11
58.32537780154121
 21
256.4259521586189
 31
0.0
  0
LINE
  5
72
  8
MAKE2D$VISIBLE$CURVAS$PRED
 10
58.32537780154121
 20
256.4259521586189
 30
0.0
 11
46.32537780154121
 21
256.4259521586189
 31
0.0
  0
ARC
  5
73
  8
MAKE2D$VISIBLE$CURVAS$PRED
 10
-24.67462219845907
 20
160.4259521586195
 30
0.0
 40
20.00000000000057
 50
270.0000000000007
 51
329.9999999999989
  0
LINE
  5
74
  8
MAKE2D$VISIBLE$CURVAS$PRED
 10
-7.354114122769715
 20
150.4259521586188
 30
0.0
 11
-2.157961700063382
 21
147.4259521586189
 31
0.0
  0
ARC
  5
75
  8
MAKE2D$VISIBLE$CURVAS$PRED
 10
24.67462219845879
 20
160.4259521586189
 30
0.0
 40
25.99999999999998
 50
209.9999999999999
 51
270.0
210
0.0
220
0.0
230
-1.0
  0
LINE
  5
76
  8
MAKE2D$VISIBLE$CURVAS$PRED
 10
-24.67462219845881
 20
134.4259521586189
 30
0.0
 11
-24.67462219845879
 21
140.4259521586189
 31
0.0
  0
LINE
  5
77
  8
MAKE2D$VISIBLE$CURVAS$PRED
 10
-24.67462219845879
 20
140.4259521586189
 30
0.0
 11
-24.67462219845881
 21
134.4259521586189
 31
0.0
  0
ARC
  5
78
  8
MAKE2D$VISIBLE$CURVAS$PRED
 10
24.67462219845871
 20
160.4259521586191
 30
0.0
 40
26.00000000000017
 50
270.0000000000002
 51
329.9999999999998
210
0.0
220
0.0
230
-1.0
  0
LINE
  5
79
  8
MAKE2D$VISIBLE$CURVAS$PRED
 10
-47.19128269685422
 20
147.4259521586189
 30
0.0
 11
-41.99513027414758
 21
150.4259521586189
 31
0.0
  0
ARC
  5
7A
  8
MAKE2D$VISIBLE$CURVAS$PRED
 10
-24.67462219845903
 20
160.4259521586186
 30
0.0
 40
19.99999999999973
 50
209.9999999999996
 51
270.0000000000007
  0
LINE
  5
7B
  8
MAKE2D$VISIBLE$CURVAS$PRED
 10
-41.99513027414761
 20
150.4259521586189
 30
0.0
 11
-47.19128269685422
 21
147.4259521586189
 31
0.0
  0
ARC
  5
7C
  8
MAKE2D$VISIBLE$CURVAS$PRED
 10
24.67462219845895
 20
160.4259521586189
 30
0.0
 40
25.99999999999988
 50
329.9999999999998
 51
30.00000000000016
210
0.0
220
0.0
230
-1.0
  0
LINE
  5
7D
  8
MAKE2D$VISIBLE$CURVAS$PRED
 10
-47.19128269685422
 20
173.4259521586189
 30
0.0
 11
-41.9951302741469
 21
170.4259521586201
 31
0.0
  0
ARC
  5
7E
  8
MAKE2D$VISIBLE$CURVAS$PRED
 10
-24.67462219845908
 20
160.425952158619
 30
0.0
 40
19.9999999999998
 50
149.999999999996
 51
210.0000000000004
  0
LINE
  5
7F
  8
MAKE2D$VISIBLE$CURVAS$PRED
 10
-41.99513027414694
 20
170.4259521586201
 30
0.0
 11
-47.19128269685422
 21
173.4259521586189
 31
0.0
  0
ARC
  5
80
  8
MAKE2D$VISIBLE$CURVAS$PRED
 10
24.67462219845886
 20
160.425952158619
 30
0.0
 40
25.99999999999992
 50
29.99999999999989
 51
90.00000000000016
210
0.0
220
0.0
230
-1.0
  0
LINE
  5
81
  8
MAKE2D$VISIBLE$CURVAS$PRED
 10
-24.67462219845879
 20
186.4259521586189
 30
0.0
 11
-24.67462219845879
 21
180.4259521585789
 31
0.0
  0
ARC
  5
82
  8
MAKE2D$VISIBLE$CURVAS$PRED
 10
-24.67462219845185
 20
160.425952158607
 30
0.0
 40
20.00000000001202
 50
90.00000000001988
 51
149.9999999999766
  0
LINE
  5
83
  8
MAKE2D$VISIBLE$CURVAS$PRED
 10
-24.67462219845879
 20
186.4259521586189
 30
0.0
 11
-24.67462219845879
 21
180.4259521585789
 31
0.0
  0
ARC
  5
84
  8
MAKE2D$VISIBLE$CURVAS$PRED
 10
24.67462219842897
 20
160.425952158671
 30
0.0
 40
19.99999999994799
 50
89.99999999991456
 51
150.0000000000866
210
0.0
220
0.0
230
-1.0
  0
LINE
  5
85
  8
MAKE2D$VISIBLE$CURVAS$PRED
 10
-7.354114122770127
 20
170.4259521586188
 30
0.0
 11
-2.15796170006341
 21
173.4259521586189
 31
0.0
  0
ARC
  5
86
  8
MAKE2D$VISIBLE$CURVAS$PRED
 10
-24.67462219845885
 20
160.4259521586189
 30
0.0
 40
26.00000000000003
 50
29.99999999999996
 51
89.99999999999987
  0
LINE
  5
87
  8
MAKE2D$VISIBLE$CURVAS$PRED
 10
-2.157961700063382
 20
147.4259521586189
 30
0.0
 11
-7.354114122769843
 21
150.4259521586188
 31
0.0
  0
ARC
  5
88
  8
MAKE2D$VISIBLE$CURVAS$PRED
 10
-24.67462219845844
 20
160.4259521586188
 30
0.0
 40
19.99999999999982
 50
329.9999999999999
 51
30.00000000000068
  0
LINE
  5
89
  8
MAKE2D$VISIBLE$CURVAS$PRED
 10
-7.354114122770312
 20
170.4259521586188
 30
0.0
 11
-2.15796170006341
 21
173.4259521586189
 31
0.0
  0
ARC
  5
8A
  8
MAKE2D$VISIBLE$CURVAS$PRED
 10
24.67462219845864
 20
160.4259521586189
 30
0.0
 40
25.99999999999985
 50
149.9999999999998
 51
210.0000000000001
210
0.0
220
0.0
230
-1.0
  0
ARC
  5
8B
  8
MAKE2D$VISIBLE$CURVAS$PRED
 10
52.32537780154111
 20
160.4259521586191
 30
0.0
 40
17.49999999999989
 50
89.99999999999969
 51
150.0000000000001
  0
LINE
  5
8C
  8
MAKE2D$VISIBLE$CURVAS$PRED
 10
37.16993323531352
 20
169.1759521586189
 30
0.0
 11
29.80871730314578
 21
173.4259521586189
 31
0.0
  0
ARC
  5
8D
  8
MAKE2D$VISIBLE$CURVAS$PRED
 10
-52.3253778015412
 20
160.4259521586189
 30
0.0
 40
26.00000000000005
 50
30.00000000000015
 51
89.99999999999999
210
0.0
220
0.0
230
-1.0
  0
LINE
  5
8E
  8
MAKE2D$VISIBLE$CURVAS$PRED
 10
52.32537780154119
 20
186.4259521586189
 30
0.0
 11
52.32537780154121
 21
177.925952158619
 31
0.0
  0
LINE
  5
8F
  8
MAKE2D$VISIBLE$CURVAS$PRED
 10
52.32537780154121
 20
177.9259521586189
 30
0.0
 11
52.32537780154119
 21
186.4259521586189
 31
0.0
  0
ARC
  5
90
  8
MAKE2D$VISIBLE$CURVAS$PRED
 10
-52.32537780154124
 20
160.425952158619
 30
0.0
 40
25.99999999999991
 50
89.99999999999991
 51
150.0000000000003
210
0.0
220
0.0
230
-1.0
  0
LINE
  5
91
  8
MAKE2D$VISIBLE$CURVAS$PRED
 10
74.84203829993663
 20
173.4259521586189
 30
0.0
 11
67.48082236776888
 21
169.1759521586189
 31
0.0
  0
ARC
  5
92
  8
MAKE2D$VISIBLE$CURVAS$PRED
 10
52.32537780154119
 20
160.4259521586189
 30
0.0
 40
17.50000000000002
 50
30.00000000000007
 51
89.99999999999997
  0
LINE
  5
93
  8
MAKE2D$VISIBLE$CURVAS$PRED
 10
67.48082236776888
 20
169.1759521586189
 30
0.0
 11
74.84203829993663
 21
173.4259521586189
 31
0.0
  0
ARC
  5
94
  8
MAKE2D$VISIBLE$CURVAS$PRED
 10
-52.32537780154148
 20
160.425952158619
 30
0.0
 40
25.99999999999974
 50
149.9999999999999
 51
210.0000000000004
210
0.0
220
0.0
230
-1.0
  0
LINE
  5
95
  8
MAKE2D$VISIBLE$CURVAS$PRED
 10
74.84203829993658
 20
147.4259521586189
 30
0.0
 11
67.48082236776793
 21
151.6759521586195
 31
0.0
  0
ARC
  5
96
  8
MAKE2D$VISIBLE$CURVAS$PRED
 10
52.32537780154095
 20
160.4259521586189
 30
0.0
 40
17.50000000000022
 50
330.0000000000001
 51
29.99999999999961
  0
LINE
  5
97
  8
MAKE2D$VISIBLE$CURVAS$PRED
 10
67.48082236776793
 20
151.6759521586195
 30
0.0
 11
74.84203829993658
 21
147.4259521586189
 31
0.0
  0
ARC
  5
98
  8
MAKE2D$VISIBLE$CURVAS$PRED
 10
-52.32537780154113
 20
160.425952158619
 30
0.0
 40
26.00000000000008
 50
210.0000000000001
 51
269.9999999999999
210
0.0
220
0.0
230
-1.0
  0
LINE
  5
99
  8
MAKE2D$VISIBLE$CURVAS$PRED
 10
52.32537780154118
 20
134.4259521586189
 30
0.0
 11
52.32537780154121
 21
142.9259521586189
 31
0.0
  0
ARC
  5
9A
  8
MAKE2D$VISIBLE$CURVAS$PRED
 10
52.32537780154235
 20
160.4259521586148
 30
0.0
 40
17.49999999999585
 50
269.9999999999962
 51
330.0000000000097
  0
LINE
  5
9B
  8
MAKE2D$VISIBLE$CURVAS$PRED
 10
52.32537780154121
 20
142.9259521586189
 30
0.0
 11
52.32537780154118
 21
134.4259521586189
 31
0.0
  0
ARC
  5
9C
  8
MAKE2D$VISIBLE$CURVAS$PRED
 10
-52.32537780154122
 20
160.4259521586189
 30
0.0
 40
26.0
 50
270.0000000000001
 51
329.9999999999998
210
0.0
220
0.0
230
-1.0
  0
LINE
  5
9D
  8
MAKE2D$VISIBLE$CURVAS$PRED
 10
29.80871730314578
 20
147.4259521586189
 30
0.0
 11
37.16993323531352
 21
151.6759521586189
 31
0.0
  0
ARC
  5
9E
  8
MAKE2D$VISIBLE$CURVAS$PRED
 10
52.32537780154132
 20
160.4259521586192
 30
0.0
 40
17.50000000000022
 50
210.0000000000004
 51
269.9999999999996
  0
LINE
  5
9F
  8
MAKE2D$VISIBLE$CURVAS$PRED
 10
37.16993323531352
 20
151.6759521586189
 30
0.0
 11
29.80871730314578
 21
147.4259521586189
 31
0.0
  0
ARC
  5
A0
  8
MAKE2D$VISIBLE$CURVAS$PRED
 10
-52.3253778015413
 20
160.425952158619
 30
0.0
 40
26.00000000000009
 50
329.9999999999999
 51
29.99999999999982
210
0.0
220
0.0
230
-1.0
  0
LINE
  5
A1
  8
MAKE2D$VISIBLE$CURVAS$PRED
 10
29.80871730314578
 20
173.4259521586189
 30
0.0
 11
37.16993323531352
 21
169.175952158619
 31
0.0
  0
ARC
  5
A2
  8
MAKE2D$VISIBLE$CURVAS$PRED
 10
52.32537780154107
 20
160.425952158619
 30
0.0
 40
17.49999999999989
 50
149.9999999999998
 51
210.0000000000003
  0
ARC
  5
A3
  8
MAKE2D$VISIBLE$CURVAS$PRED
 10
23.1129013202983
 20
264.3554742671563
 30
0.0
 40
0.9761082974969587
 50
141.9418065412052
 51
276.2666126966677
210
0.0
220
0.0
230
-1.0
  0
ARC
  5
A4
  8
MAKE2D$VISIBLE$CURVAS$PRED
 10
-24.67462219845756
 20
237.4259521586764
 30
0.0
 40
25.99999999994256
 50
86.7915807621232
 51
90.00000000000271
  0
ARC
  5
A5
  8
MAKE2D$VISIBLE$CURVAS$PRED
 10
-24.67462219845885
 20
237.425952158619
 30
0.0
 40
25.99999999999997
 50
89.99999999999989
 51
58.81979950324718
  0
LINE
  5
A6
  8
MAKE2D$VISIBLE$CURVAS$PRED
 10
-11.21360597535666
 20
259.6700759274119
 30
0.0
 11
-11.51502662644958
 21
259.9520427129376
 31
0.0
  0
LINE
  5
A7
  8
MAKE2D$VISIBLE$CURVAS$PRED
 10
-11.51502662644958
 20
259.9520427129376
 30
0.0
 11
-20.9495595894706
 21
273.4259521586188
 31
0.0
  0
LINE
  5
A8
  8
MAKE2D$VISIBLE$CURVAS$PRED
 10
-20.9495595894706
 20
273.4259521586188
 30
0.0
 11
-22.05171975350844
 21
275.0
 31
0.0
  0
LINE
  5
A9
  8
MAKE2D$VISIBLE$CURVAS$PRED
 10
-22.05171975350844
 20
275.0
 30
0.0
 11
-29.3763672860774
 21
275.0
 31
0.0
  0
LINE
  5
AA
  8
MAKE2D$VISIBLE$CURVAS$PRED
 10
-29.3763672860774
 20
275.0
 30
0.0
 11
-22.34432824948814
 21
264.9572074665627
 31
0.0
  0
LINE
  5
AB
  8
MAKE2D$VISIBLE$CURVAS$PRED
 10
11.32537780154121
 20
273.4259521586189
 30
0.0
 11
-60.67462219845879
 21
273.4259521586189
 31
0.0
  0
LINE
  5
AC
  8
MAKE2D$VISIBLE$CURVAS$PRED
 10
-60.67462219845879
 20
273.4259521586189
 30
0.0
 11
-60.67462219845879
 21
201.4259521586189
 31
0.0
  0
LINE
  5
AD
  8
MAKE2D$VISIBLE$CURVAS$PRED
 10
-60.67462219845879
 20
201.4259521586189
 30
0.0
 11
11.32537780154121
 21
201.4259521586189
 31
0.0
  0
LINE
  5
AE
  8
MAKE2D$VISIBLE$CURVAS$PRED
 10
11.32537780154121
 20
201.4259521586189
 30
0.0
 11
11.32537780154121
 21
273.4259521586189
 31
0.0
  0
LINE
  5
B0
  8
MAKE2D$VISIBLE$CURVASDESIL
 10
11.32537780154121
 20
196.4259521586189
 30
0.0
 11
-60.67462219845879
 21
196.4259521586189
 31
0.0
  0
LINE
  5
B1
  8
MAKE2D$VISIBLE$CURVASDESIL
 10
-60.67462219845879
 20
196.4259521586189
 30
0.0
 11
-60.67462219845879
 21
124.4259521586189
 31
0.0
  0
LINE
  5
B2
  8
MAKE2D$VISIBLE$CURVASDESIL
 10
-60.67462219845879
 20
124.4259521586189
 30
0.0
 11
11.32537780154121
 21
124.4259521586189
 31
0.0
  0
LINE
  5
B3
  8
MAKE2D$VISIBLE$CURVASDESIL
 10
11.32537780154121
 20
124.4259521586189
 30
0.0
 11
11.32537780154121
 21
196.4259521586189
 31
0.0
  0
LINE
  5
B4
  8
MAKE2D$VISIBLE$CURVAS$PRED
 10
16.32537780154121
 20
196.4259521586189
 30
0.0
 11
16.32537780154121
 21
124.4259521586189
 31
0.0
  0
LINE
  5
B5
  8
MAKE2D$VISIBLE$CURVAS$PRED
 10
16.32537780154121
 20
124.4259521586189
 30
0.0
 11
88.32537780154121
 21
124.4259521586189
 31
0.0
  0
LINE
  5
B6
  8
MAKE2D$VISIBLE$CURVAS$PRED
 10
88.32537780154121
 20
124.4259521586189
 30
0.0
 11
88.32537780154121
 21
196.4259521586189
 31
0.0
  0
LINE
  5
B7
  8
MAKE2D$VISIBLE$CURVAS$PRED
 10
88.32537780154121
 20
196.4259521586189
 30
0.0
 11
16.32537780154121
 21
196.4259521586189
 31
0.0
  0
LINE
  5
B8
  8
MAKE2D$VISIBLE$CURVAS$PRED
 10
88.32537780154121
 20
273.4259521586189
 30
0.0
 11
16.32537780154121
 21
273.4259521586189
 31
0.0
  0
LINE
  5
B9
  8
MAKE2D$VISIBLE$CURVAS$PRED
 10
16.32537780154121
 20
273.4259521586189
 30
0.0
 11
16.32537780154121
 21
201.4259521586189
 31
0.0
  0
LINE
  5
BA
  8
MAKE2D$VISIBLE$CURVAS$PRED
 10
16.32537780154121
 20
201.4259521586189
 30
0.0
 11
88.32537780154121
 21
201.4259521586189
 31
0.0
  0
LINE
  5
BB
  8
MAKE2D$VISIBLE$CURVAS$PRED
 10
88.32537780154121
 20
201.4259521586189
 30
0.0
 11
88.32537780154121
 21
273.4259521586189
 31
0.0
  0
CIRCLE
  5
BD
  8
PREDETERMINADA
 10
52.32537780154127
 20
237.4259521586189
 30
0.0
 40
26.00000000000005
  0
ARC
  5
BE
  8
MAKE2D$VISIBLE$CURVAS$PRED
 10
52.32537780176659
 20
237.4259521594399
 30
0.0
 40
25.99999999914864
 50
74.3317222560678
 51
74.97388624089128
  0
CIRCLE
  5
BF
  8
MAKE2D$VISIBLE$CURVAS$PRED
 10
24.67462219845878
 20
237.4259521586189
 30
0.0
 40
19.99999999999999
210
0.0
220
0.0
230
-1.0
  0
CIRCLE
  5
C0
  8
MAKE2D$VISIBLE$CURVAS$PRED
 10
-52.32537780154121
 20
237.4259521586189
 30
0.0
 40
17.5
210
0.0
220
0.0
230
-1.0
  0
ENDSEC
  0
EOF
