0
SECTION
2
HEADER
9
$INSUNITS
70
4
9
$ACADVER
1
AC1014
9
$HANDSEED
5
FFFF
0
ENDSEC
0
SECTION
2
TABLES
0
TABLE
2
VPORT
5
8
100
AcDbSymbolTable
0
ENDTAB
0
TABLE
2
LTYPE
5
5
100
AcDbSymbolTable
0
LTYPE
5
14
100
AcDbSymbolTableRecord
100
AcDbLinetypeTableRecord
2
BYBLOCK
70
0
0
LTYPE
5
15
100
AcDbSymbolTableRecord
100
AcDbLinetypeTableRecord
2
BYLAYER
70
0
0
ENDTAB
0
TABLE
2
LAYER
5
2
100
AcDbSymbolTable
70
2
0
LAYER
5
50
100
AcDbSymbolTableRecord
100
AcDbLayerTableRecord
2
0
70
0
6
CONTINUOUS
0
ENDTAB
0
TABLE
2
STYLE
5
3
100
AcDbSymbolTable
70
1
0
STYLE
5
11
100
AcDbSymbolTableRecord
100
AcDbTextStyleTableRecord
2
STANDARD
70
0
0
ENDTAB
0
TABLE
2
VIEW
5
6
100
AcDbSymbolTable
70
0
0
ENDTAB
0
TABLE
2
UCS
5
7
100
AcDbSymbolTable
70
0
0
ENDTAB
0
TABLE
2
APPID
5
9
100
AcDbSymbolTable
70
2
0
APPID
5
12
100
AcDbSymbolTableRecord
100
AcDbRegAppTableRecord
2
ACAD
70
0
0
ENDTAB
0
TABLE
2
DIMSTYLE
5
A
100
AcDbSymbolTable
70
1
0
ENDTAB
0
TABLE
2
BLOCK_RECORD
5
1
100
AcDbSymbolTable
70
1
0
BLOCK_RECORD
5
1F
100
AcDbSymbolTableRecord
100
AcDbBlockTableRecord
2
*MODEL_SPACE
0
BLOCK_RECORD
5
1B
100
AcDbSymbolTableRecord
100
AcDbBlockTableRecord
2
*PAPER_SPACE
0
ENDTAB
0
ENDSEC
0
SECTION
2
BLOCKS
0
BLOCK
5
20
100
AcDbEntity
100
AcDbBlockBegin
2
*MODEL_SPACE
0
ENDBLK
5
21
100
AcDbEntity
100
AcDbBlockEnd
0
BLOCK
5
1C
100
AcDbEntity
100
AcDbBlockBegin
2
*PAPER_SPACE
0
ENDBLK
5
1D
100
AcDbEntity
100
AcDbBlockEnd
0
ENDSEC
0
SECTION
2
ENTITIES
0
LINE
5
100
100
AcDbEntity
8
0
100
AcDbLine
10
0
20
1250
30
0
11
40
21
1250
31
0
0
LINE
5
101
100
AcDbEntity
8
0
100
AcDbLine
10
0
20
1210
30
0
11
0
21
1250
31
0
0
LINE
5
102
100
AcDbEntity
8
0
100
AcDbLine
10
0
20
0
30
0
11
40
21
0
31
0
0
LINE
5
103
100
AcDbEntity
8
0
100
AcDbLine
10
0
20
39.999999999999993
30
0
11
0
21
0
31
0
0
LWPOLYLINE
5
104
100
AcDbEntity
8
0
100
AcDbPolyline
90
4
70
1
43
0.0
10
1210
20
0
10
1250
20
0
10
1250
20
40
10
1210
20
40
0
LINE
5
105
100
AcDbEntity
8
0
100
AcDbLine
10
1250
20
1250
30
0
11
1210
21
1250
31
0
0
LINE
5
106
100
AcDbEntity
8
0
100
AcDbLine
10
1250
20
1210
30
0
11
1250
21
1250
31
0
0
LWPOLYLINE
5
107
100
AcDbEntity
8
0
100
AcDbPolyline
90
29
70
1
43
0.0
10
909.99999999999989
20
160
10
909.99999999999989
20
39.999999999999993
10
849.99999999999989
20
40
10
849.99999999999989
20
100
10
834.99999999999989
20
100
10
834.99999999999989
20
39.999999999999993
10
175.00000000000014
20
40
10
175.00000000000014
20
100
10
160.00000000000014
20
100
10
160.00000000000014
20
40
10
40
20
40
10
40.000000000000057
20
420.26569959513722
10
100.00000000000006
20
420.26569959513722
10
100.00000000000006
20
435.26569959513722
10
40.000000000000036
20
435.26569959513722
10
40.000000000000071
20
785.13284979756861
10
100.00000000000007
20
785.13284979756861
10
100.00000000000007
20
800.13284979756861
10
40.000000000000071
20
800.13284979756861
10
40.000000000000099
20
1135
10
100.00000000000011
20
1135
10
100.00000000000011
20
1150
10
40.000000000000107
20
1150
10
40.000000000000107
20
1210
10
160.00000000000011
20
1210
10
160.00000000000014
20
810
10
160.00000000000014
20
795
10
160.00000000000014
20
409.99999999999994
42
0.41421356237309553
10
409.99999999999994
20
160
0
LINE
5
108
100
AcDbEntity
8
0
100
AcDbLine
10
849.99999999999989
20
39.999999999999993
30
0
11
909.99999999999989
21
39.999999999999993
31
0
0
CIRCLE
5
109
100
AcDbEntity
8
0
100
AcDbCircle
10
100.00000000000011
20
1150
30
0
40
2.7500000000000036
210
0
220
0
230
1
0
CIRCLE
5
110
100
AcDbEntity
8
0
100
AcDbCircle
10
100.00000000000011
20
1135
30
0
40
2.7500000000000568
210
0
220
0
230
1
0
CIRCLE
5
111
100
AcDbEntity
8
0
100
AcDbCircle
10
100.00000000000006
20
435.26569959513722
30
0
40
2.7500000000000102
210
0
220
0
230
1
0
CIRCLE
5
112
100
AcDbEntity
8
0
100
AcDbCircle
10
100.00000000000006
20
420.26569959513722
30
0
40
2.750000000000004
210
0
220
0
230
1
0
CIRCLE
5
113
100
AcDbEntity
8
0
100
AcDbCircle
10
160.00000000000014
20
100
30
0
40
2.7499999999999964
210
0
220
0
230
1
0
CIRCLE
5
114
100
AcDbEntity
8
0
100
AcDbCircle
10
175.00000000000014
20
100
30
0
40
2.7500000000000084
210
0
220
0
230
1
0
CIRCLE
5
115
100
AcDbEntity
8
0
100
AcDbCircle
10
849.99999999999989
20
100
30
0
40
2.7500000000000568
210
0
220
0
230
1
0
CIRCLE
5
116
100
AcDbEntity
8
0
100
AcDbCircle
10
834.99999999999989
20
100
30
0
40
2.7500000000000306
210
0
220
0
230
1
0
LINE
5
117
100
AcDbEntity
8
0
100
AcDbLine
10
1249.9999999999998
20
1250
30
0
11
1209.9999999999998
21
1250
31
0
0
LINE
5
118
100
AcDbEntity
8
0
100
AcDbLine
10
1249.9999999999998
20
1210
30
0
11
1249.9999999999998
21
1250
31
0
0
LINE
5
119
100
AcDbEntity
8
0
100
AcDbLine
10
1249.9999999999998
20
0
30
0
11
1209.9999999999998
21
0
31
0
0
LINE
5
120
100
AcDbEntity
8
0
100
AcDbLine
10
1249.9999999999998
20
40
30
0
11
1249.9999999999998
21
0
31
0
0
LWPOLYLINE
5
121
100
AcDbEntity
8
0
100
AcDbPolyline
90
12
70
1
43
0.0
10
681.26478307477532
20
475.23092439324273
10
751.26478307477532
20
475.23092439324273
10
751.26478307477532
20
535.23092439324284
10
766.26478307477532
20
535.23092439324296
10
766.26478307477532
20
475.23092439324301
10
781.26478307477532
20
475.23092439324301
10
781.26478307477532
20
595.2309243932425
10
651.26478307477532
20
595.23092439324284
10
651.26478307477532
20
475.23092439324262
10
666.26478307477532
20
475.23092439324262
10
666.26478307477555
20
535.23092439324262
10
681.26478307477555
20
535.23092439324273
0
CIRCLE
5
122
100
AcDbEntity
8
0
100
AcDbCircle
10
666.26478307477532
20
535.23092439324262
30
0
40
2.7500000000000346
210
0
220
0
230
1
0
CIRCLE
5
123
100
AcDbEntity
8
0
100
AcDbCircle
10
681.26478307477532
20
535.23092439324273
30
0
40
2.7500000000000284
210
0
220
0
230
1
0
CIRCLE
5
124
100
AcDbEntity
8
0
100
AcDbCircle
10
751.26478307477532
20
535.23092439324273
30
0
40
2.7500000000000062
210
0
220
0
230
1
0
CIRCLE
5
125
100
AcDbEntity
8
0
100
AcDbCircle
10
766.26478307477532
20
535.23092439324284
30
0
40
2.7500000000000497
210
0
220
0
230
1
0
LWPOLYLINE
5
126
100
AcDbEntity
8
0
100
AcDbPolyline
90
12
70
1
43
0.0
10
506.26478307477413
20
475.23092439324603
10
576.26478307477419
20
475.23092439324603
10
576.26478307477805
20
535.23092439324205
10
591.2647830747801
20
535.23092439323466
10
591.26478307477703
20
475.23092439323602
10
606.26478307477703
20
475.2309243932358
10
606.26478307477419
20
595.23092439323568
10
476.26478307477413
20
595.23092439323568
10
476.26478307477413
20
475.23092439323534
10
491.26478307477413
20
475.23092439323534
10
491.26478307478436
20
535.23092439322954
10
506.26478307478095
20
535.23092439324
0
CIRCLE
5
127
100
AcDbEntity
8
0
100
AcDbCircle
10
591.26478307477805
20
535.23092439323875
30
0
40
2.7500000000000497
210
0
220
0
230
1
0
CIRCLE
5
128
100
AcDbEntity
8
0
100
AcDbCircle
10
576.26478307477612
20
535.23092439324603
30
0
40
2.7500000000000062
210
0
220
0
230
1
0
CIRCLE
5
129
100
AcDbEntity
8
0
100
AcDbCircle
10
506.26478307477754
20
535.23092439324603
30
0
40
2.7500000000000284
210
0
220
0
230
1
0
CIRCLE
5
130
100
AcDbEntity
8
0
100
AcDbCircle
10
491.26478307478095
20
535.23092439323534
30
0
40
2.7500000000000346
210
0
220
0
230
1
0
CIRCLE
5
131
100
AcDbEntity
8
0
100
AcDbCircle
10
100.00000000000007
20
800.13284979756861
30
0
40
2.7500000000000036
210
0
220
0
230
1
0
CIRCLE
5
132
100
AcDbEntity
8
0
100
AcDbCircle
10
100.00000000000007
20
785.13284979756861
30
0
40
2.7500000000000586
210
0
220
0
230
1
0
CIRCLE
5
133
100
AcDbEntity
8
0
100
AcDbCircle
10
591.26478305202136
20
685.23092433265788
30
0
40
2.7500000000000497
210
0
220
0
230
1
0
LWPOLYLINE
5
134
100
AcDbEntity
8
0
100
AcDbPolyline
90
12
70
1
43
0.0
10
591.26478305202124
20
685.23092433265788
10
576.26478305215369
20
685.23092433265788
10
576.26478305215392
20
625.23092433265788
10
506.26478305215386
20
625.23092433265788
10
506.26478305215358
20
685.23092433265788
10
491.26478305236776
20
685.23092433265788
10
491.26478305236787
20
625.23092433265788
10
476.26478305236787
20
625.23092433265788
10
356.32340679157977
20
745.23092438392928
10
726.26478309032518
20
745.23092438392837
10
606.26478305202124
20
625.23092433265799
10
591.26478305202124
20
625.23092433265799
0
CIRCLE
5
135
100
AcDbEntity
8
0
100
AcDbCircle
10
576.26478305215392
20
685.23092433265788
30
0
40
2.7500000000000062
210
0
220
0
230
1
0
CIRCLE
5
136
100
AcDbEntity
8
0
100
AcDbCircle
10
491.26478305236787
20
685.23092433265788
30
0
40
2.7500000000000346
210
0
220
0
230
1
0
CIRCLE
5
137
100
AcDbEntity
8
0
100
AcDbCircle
10
506.26478305215386
20
685.23092433265788
30
0
40
2.7500000000000284
210
0
220
0
230
1
0
CIRCLE
5
138
100
AcDbEntity
8
0
100
AcDbCircle
10
506.26478279995439
20
835.23092439307356
30
0
40
2.7500000000000284
210
0
220
0
230
1
0
CIRCLE
5
139
100
AcDbEntity
8
0
100
AcDbCircle
10
491.26478281638612
20
835.23092439307356
30
0
40
2.7500000000000346
210
0
220
0
230
1
0
LWPOLYLINE
5
140
100
AcDbEntity
8
0
100
AcDbPolyline
90
12
70
1
43
0.0
10
506.26478279995439
20
835.23092439307356
10
506.26478279995439
20
775.23092439307356
10
576.26478279995445
20
775.23092439307356
10
576.26478279995433
20
835.23092439307356
10
591.26478281112395
20
835.23092439307356
10
591.26478281112395
20
775.23092439307356
10
606.26478281112395
20
775.23092439307356
10
726.26478299983444
20
895.2309242863389
10
356.32340670108874
20
895.23092428633959
10
476.26478281638612
20
775.23092439307356
10
491.26478281638612
20
775.23092439307356
10
491.26478281638572
20
835.23092439307356
0
CIRCLE
5
141
100
AcDbEntity
8
0
100
AcDbCircle
10
591.26478281112418
20
835.23092439307356
30
0
40
2.7500000000000497
210
0
220
0
230
1
0
CIRCLE
5
142
100
AcDbEntity
8
0
100
AcDbCircle
10
576.26478279995445
20
835.23092439307356
30
0
40
2.7500000000000062
210
0
220
0
230
1
0
LWPOLYLINE
5
143
100
AcDbEntity
8
0
100
AcDbPolyline
90
12
70
1
43
0.0
10
376.26478306652007
20
535.23092435058527
10
376.2647830665199
20
475.23092435058516
10
306.2647830665199
20
475.23092435058516
10
306.26478306651973
20
535.23092435058516
10
291.26478306673391
20
535.23092435058516
10
291.2647830667342
20
475.23092435058516
10
276.2647830667342
20
475.23092435058516
10
276.26478306673414
20
595.2309243505855
10
406.26478306638745
20
595.23092435058561
10
406.26478306638728
20
475.23092435058521
10
391.26478306638728
20
475.23092435058521
10
391.26478306638762
20
535.23092435058527
0
CIRCLE
5
144
100
AcDbEntity
8
0
100
AcDbCircle
10
291.2647830667342
20
535.23092435058516
30
0
40
2.7500000000000346
210
0
220
0
230
1
0
CIRCLE
5
145
100
AcDbEntity
8
0
100
AcDbCircle
10
391.26478306638745
20
535.23092435058516
30
0
40
2.7500000000000497
210
0
220
0
230
1
0
CIRCLE
5
146
100
AcDbEntity
8
0
100
AcDbCircle
10
306.2647830665199
20
535.23092435058516
30
0
40
2.7500000000000284
210
0
220
0
230
1
0
CIRCLE
5
147
100
AcDbEntity
8
0
100
AcDbCircle
10
376.2647830665199
20
535.23092435058516
30
0
40
2.7500000000000062
210
0
220
0
230
1
0
CIRCLE
5
148
100
AcDbEntity
8
0
100
AcDbCircle
10
385
20
1150
30
0
40
2.7500000000000306
210
0
220
0
230
1
0
CIRCLE
5
149
100
AcDbEntity
8
0
100
AcDbCircle
10
370
20
1150
30
0
40
2.7500000000000568
210
0
220
0
230
1
0
CIRCLE
5
150
100
AcDbEntity
8
0
100
AcDbCircle
10
1044.9999999999995
20
1149.9999999999998
30
0
40
2.7500000000000084
210
0
220
0
230
1
0
CIRCLE
5
151
100
AcDbEntity
8
0
100
AcDbCircle
10
1059.9999999999995
20
1149.9999999999998
30
0
40
2.7499999999999964
210
0
220
0
230
1
0
CIRCLE
5
152
100
AcDbEntity
8
0
100
AcDbCircle
10
1120
20
829.73430040486267
30
0
40
2.750000000000004
210
0
220
0
230
1
0
CIRCLE
5
153
100
AcDbEntity
8
0
100
AcDbCircle
10
1120
20
814.73430040486267
30
0
40
2.7500000000000102
210
0
220
0
230
1
0
CIRCLE
5
154
100
AcDbEntity
8
0
100
AcDbCircle
10
1119.9999999999995
20
449.86715020243128
30
0
40
2.7500000000000036
210
0
220
0
230
1
0
CIRCLE
5
155
100
AcDbEntity
8
0
100
AcDbCircle
10
1119.9999999999995
20
464.86715020243128
30
0
40
2.7500000000000586
210
0
220
0
230
1
0
CIRCLE
5
156
100
AcDbEntity
8
0
100
AcDbCircle
10
1119.9999999999995
20
99.999999999999858
30
0
40
2.7500000000000036
210
0
220
0
230
1
0
CIRCLE
5
157
100
AcDbEntity
8
0
100
AcDbCircle
10
1119.9999999999995
20
114.99999999999986
30
0
40
2.7500000000000568
210
0
220
0
230
1
0
LWPOLYLINE
5
158
100
AcDbEntity
8
0
100
AcDbPolyline
90
29
70
1
43
0.0
10
1059.9999999999995
20
39.999999999999858
10
1179.9999999999995
20
39.999999999999858
10
1179.9999999999995
20
99.999999999999858
10
1119.9999999999995
20
99.999999999999858
10
1119.9999999999995
20
114.99999999999986
10
1179.9999999999995
20
114.99999999999986
10
1179.9999999999995
20
449.86715020243128
10
1119.9999999999995
20
449.86715020243128
10
1119.9999999999995
20
464.86715020243128
10
1179.9999999999995
20
464.86715020243128
10
1180
20
814.73430040486267
10
1120
20
814.73430040486267
10
1120
20
829.73430040486267
10
1180
20
829.73430040486267
10
1180
20
1209.9999999999998
10
1059.9999999999995
20
1209.9999999999998
10
1059.9999999999995
20
1149.9999999999998
10
1044.9999999999995
20
1149.9999999999998
10
1044.9999999999995
20
1210
10
385
20
1210
10
385
20
1150
10
370
20
1150
10
370
20
1210
10
310
20
1210
10
310
20
1090
10
809.99999999999989
20
1089.9999999999998
42
-0.41421356237309553
10
1059.9999999999995
20
840
10
1059.9999999999995
20
454.99999999999989
10
1059.9999999999995
20
439.99999999999989
0
LWPOLYLINE
5
159
100
AcDbEntity
8
0
100
AcDbPolyline
90
16
70
1
43
0.0
10
951.26478285211192
20
615.23092424535093
10
831.26478295884669
20
735.23092443406154
10
831.26478295884669
20
750.23092443406154
10
891.26478295884669
20
750.23092443406154
10
891.26478295884658
20
765.23092444523115
10
831.26478295884658
20
765.23092444523104
10
831.26478295884658
20
772.70161239472372
10
918.00614979377519
20
772.70161239472372
42
0.99999999999999989
10
918.00614979377519
20
827.70161239472372
10
831.26478295884658
20
827.70161239472372
10
831.26478295884658
20
835.23092444523104
10
891.26478295884658
20
835.23092444523104
10
891.26478295884658
20
850.23092442879965
10
831.26478295884658
20
850.23092442879931
10
831.26478295884658
20
865.23092442879931
10
951.26478285211249
20
985.17230054409663
0
CIRCLE
5
160
100
AcDbEntity
8
0
100
AcDbCircle
10
891.26478295884658
20
850.23092442879931
30
0
40
2.7500000000000346
210
-0
220
0
230
1
0
CIRCLE
5
161
100
AcDbEntity
8
0
100
AcDbCircle
10
891.26478295884658
20
750.23092443406131
30
0
40
2.7500000000000497
210
-0
220
0
230
1
0
CIRCLE
5
162
100
AcDbEntity
8
0
100
AcDbCircle
10
891.26478295884658
20
765.23092444523104
30
0
40
2.7500000000000062
210
-0
220
0
230
1
0
CIRCLE
5
163
100
AcDbEntity
8
0
100
AcDbCircle
10
891.26478295884658
20
835.23092444523104
30
0
40
2.7500000000000284
210
-0
220
0
230
1
0
LWPOLYLINE
5
164
100
AcDbEntity
8
0
100
AcDbPolyline
90
16
70
1
43
0.0
10
856.26478307478067
20
535.23092439323625
10
856.26478307477532
20
475.23092439324273
10
863.76478307477532
20
475.23092439324273
10
863.76478307477532
20
556.63851043124532
42
-0.99999999999999989
10
918.76478307477532
20
556.63851043124532
10
918.76478307477532
20
475.23092439324273
10
926.26478307477532
20
475.23092439324273
10
926.26478307478021
20
535.2309243932358
10
941.26478307478021
20
535.2309243932358
10
941.26478307477532
20
475.23092439324307
10
956.26478307477532
20
475.23092439324307
10
956.26478307477532
20
595.2309243932425
10
826.26478307477532
20
595.23092439324296
10
826.26478307477532
20
475.23092439324262
10
841.26478307477532
20
475.23092439324262
10
841.26478307478067
20
535.23092439323625
0
CIRCLE
5
165
100
AcDbEntity
8
0
100
AcDbCircle
10
856.26478307477532
20
535.23092439324273
30
0
40
2.7500000000000284
210
0
220
0
230
1
0
CIRCLE
5
166
100
AcDbEntity
8
0
100
AcDbCircle
10
841.26478307477532
20
535.23092439324262
30
0
40
2.7500000000000346
210
0
220
0
230
1
0
CIRCLE
5
167
100
AcDbEntity
8
0
100
AcDbCircle
10
926.26478307477532
20
535.23092439324273
30
0
40
2.7500000000000062
210
0
220
0
230
1
0
CIRCLE
5
168
100
AcDbEntity
8
0
100
AcDbCircle
10
941.26478307477532
20
535.23092439324284
30
0
40
2.7500000000000497
210
0
220
0
230
1
0
ENDSEC
0
SECTION
2
OBJECTS
0
DICTIONARY
5
C
100
AcDbDictionary
3
ACAD_GROUP
350
D
3
ACAD_MLINESTYLE
350
17
0
DICTIONARY
5
D
100
AcDbDictionary
0
DICTIONARY
5
1A
330
C
100
AcDbDictionary
0
DICTIONARY
5
17
100
AcDbDictionary
0
ENDSEC
0
EOF
