  0
SECTION
  2
HEADER
  9
$ACADVER
  1
AC1014
  9
$HANDSEED
  5
FFFF
  9
$MEASUREMENT
 70
     1
  0
ENDSEC
  0
SECTION
  2
TABLES
  0
TABLE
  2
VPORT
  5
8
330
0
100
AcDbSymbolTable
 70
     4
  0
VPORT
  5
2E
330
8
100
AcDbSymbolTableRecord
100
AcDbViewportTableRecord
  2
*ACTIVE
 70
     0
 10
0.0
 20
0.0
 11
1.0
 21
1.0
 12
210.0
 22
148.5
 13
0.0
 23
0.0
 14
10.0
 24
10.0
 15
10.0
 25
10.0
 16
0.0
 26
0.0
 36
1.0
 17
0.0
 27
0.0
 37
0.0
 40
341.0
 41
1.24
 42
50.0
 43
0.0
 44
0.0
 50
0.0
 51
0.0
 71
     0
 72
   100
 73
     1
 74
     3
 75
     0
 76
     0
 77
     0
 78
     0
  0
ENDTAB
  0
TABLE
  2
LTYPE
  5
5
330
0
100
AcDbSymbolTable
 70
     1
  0
LTYPE
  5
14
330
5
100
AcDbSymbolTableRecord
100
AcDbLinetypeTableRecord
  2
BYBLOCK
 70
     0
  3

 72
    65
 73
     0
 40
0.0
  0
LTYPE
  5
15
330
5
100
AcDbSymbolTableRecord
100
AcDbLinetypeTableRecord
  2
BYLAYER
 70
     0
  3

 72
    65
 73
     0
 40
0.0
  0
LTYPE
  5
16
330
5
100
AcDbSymbolTableRecord
100
AcDbLinetypeTableRecord
  2
CONTINUOUS
 70
     0
  3
Solid line
 72
    65
 73
     0
 40
0.0
  0
ENDTAB
  0
TABLE
  2
LAYER
  5
2
100
AcDbSymbolTable
 70
2
  0
LAYER
  5
50
100
AcDbSymbolTableRecord
100
AcDbLayerTableRecord
  2
0
 70
0
  6
CONTINUOUS
  0
LAYER
  5
51
100
AcDbSymbolTableRecord
100
AcDbLayerTableRecord
  2
Visible
 70
0
  6
CONTINUOUS
  0
ENDTAB
  0
TABLE
  2
STYLE
  5
3
330
0
100
AcDbSymbolTable
 70
     1
  0
STYLE
  5
11
330
3
100
AcDbSymbolTableRecord
100
AcDbTextStyleTableRecord
  2
STANDARD
 70
     0
 40
0.0
 41
1.0
 50
0.0
 71
     0
 42
2.5
  3
txt
  4

  0
ENDTAB
  0
TABLE
  2
VIEW
  5
6
330
0
100
AcDbSymbolTable
 70
     0
  0
ENDTAB
  0
TABLE
  2
UCS
  5
7
330
0
100
AcDbSymbolTable
 70
     0
  0
ENDTAB
  0
TABLE
  2
APPID
  5
9
330
0
100
AcDbSymbolTable
 70
     2
  0
APPID
  5
12
330
9
100
AcDbSymbolTableRecord
100
AcDbRegAppTableRecord
  2
ACAD
 70
     0
  0
ENDTAB
  0
TABLE
  2
DIMSTYLE
  5
A
330
0
100
AcDbSymbolTable
 70
     1
  0
DIMSTYLE
105
27
330
A
100
AcDbSymbolTableRecord
100
AcDbDimStyleTableRecord
  2
ISO-25
 70
     0
  3

  4

  5

  6

  7

 40
1.0
 41
2.5
 42
0.625
 43
3.75
 44
1.25
 45
0.0
 46
0.0
 47
0.0
 48
0.0
140
2.5
141
2.5
142
0.0
143
0.03937007874016
144
1.0
145
0.0
146
1.0
147
0.625
 71
     0
 72
     0
 73
     0
 74
     0
 75
     0
 76
     0
 77
     1
 78
     8
170
     0
171
     3
172
     1
173
     0
174
     0
175
     0
176
     0
177
     0
178
     0
270
     2
271
     2
272
     2
273
     2
274
     3
340
11
275
     0
280
     0
281
     0
282
     0
283
     0
284
     8
285
     0
286
     0
287
     3
288
     0
  0
ENDTAB
  0
TABLE
  2
BLOCK_RECORD
  5
1
330
0
100
AcDbSymbolTable
 70
     1
  0
BLOCK_RECORD
  5
1F
330
1
100
AcDbSymbolTableRecord
100
AcDbBlockTableRecord
  2
*MODEL_SPACE
  0
BLOCK_RECORD
  5
1B
330
1
100
AcDbSymbolTableRecord
100
AcDbBlockTableRecord
  2
*PAPER_SPACE
  0
ENDTAB
  0
ENDSEC
  0
SECTION
  2
BLOCKS
  0
BLOCK
  5
20
330
1F
100
AcDbEntity
  8
0
100
AcDbBlockBegin
  2
*MODEL_SPACE
 70
     0
 10
0.0
 20
0.0
 30
0.0
  3
*MODEL_SPACE
  1

  0
ENDBLK
  5
21
330
1F
100
AcDbEntity
  8
0
100
AcDbBlockEnd
  0
BLOCK
  5
1C
330
1B
100
AcDbEntity
 67
     1
  8
0
100
AcDbBlockBegin
  2
*PAPER_SPACE
  1

  0
ENDBLK
  5
1D
330
1B
100
AcDbEntity
 67
     1
  8
0
100
AcDbBlockEnd
  0
ENDSEC
  0
SECTION
  2
ENTITIES
  0
SPLINE
  5
100
100
AcDbEntity
  8
Visible
 62
7
100
AcDbSpline
 70
8
 71
3
 72
8
 73
4
 74
0
 40
0
 40
0
 40
0
 40
0
 40
1
 40
1
 40
1
 40
1
 10
153.620918
 20
85.132267
 30
0.0
 10
153.620918
 20
85.846799
 30
0.0
 10
153.239720
 20
86.507053
 30
0.0
 10
152.620918
 20
86.864318
 30
0.0
  0
SPLINE
  5
101
100
AcDbEntity
  8
Visible
 62
7
100
AcDbSpline
 70
8
 71
3
 72
8
 73
4
 74
0
 40
0
 40
0
 40
0
 40
0
 40
1
 40
1
 40
1
 40
1
 10
152.620918
 20
86.864318
 30
0.0
 10
152.002116
 20
87.221584
 30
0.0
 10
151.239720
 20
87.221584
 30
0.0
 10
150.620918
 20
86.864318
 30
0.0
  0
SPLINE
  5
102
100
AcDbEntity
  8
Visible
 62
7
100
AcDbSpline
 70
8
 71
3
 72
8
 73
4
 74
0
 40
0
 40
0
 40
0
 40
0
 40
1
 40
1
 40
1
 40
1
 10
150.620918
 20
86.864318
 30
0.0
 10
150.002116
 20
86.507053
 30
0.0
 10
149.620918
 20
85.846799
 30
0.0
 10
149.620918
 20
85.132267
 30
0.0
  0
SPLINE
  5
103
100
AcDbEntity
  8
Visible
 62
7
100
AcDbSpline
 70
8
 71
3
 72
8
 73
4
 74
0
 40
0
 40
0
 40
0
 40
0
 40
1
 40
1
 40
1
 40
1
 10
149.620918
 20
85.132267
 30
0.0
 10
149.620918
 20
84.417736
 30
0.0
 10
150.002116
 20
83.757482
 30
0.0
 10
150.620918
 20
83.400216
 30
0.0
  0
SPLINE
  5
104
100
AcDbEntity
  8
Visible
 62
7
100
AcDbSpline
 70
8
 71
3
 72
8
 73
4
 74
0
 40
0
 40
0
 40
0
 40
0
 40
1
 40
1
 40
1
 40
1
 10
150.620918
 20
83.400216
 30
0.0
 10
151.239720
 20
83.042951
 30
0.0
 10
152.002116
 20
83.042951
 30
0.0
 10
152.620918
 20
83.400216
 30
0.0
  0
SPLINE
  5
105
100
AcDbEntity
  8
Visible
 62
7
100
AcDbSpline
 70
8
 71
3
 72
8
 73
4
 74
0
 40
0
 40
0
 40
0
 40
0
 40
1
 40
1
 40
1
 40
1
 10
152.620918
 20
83.400216
 30
0.0
 10
153.239720
 20
83.757482
 30
0.0
 10
153.620918
 20
84.417736
 30
0.0
 10
153.620918
 20
85.132267
 30
0.0
  0
SPLINE
  5
106
100
AcDbEntity
  8
Visible
 62
7
100
AcDbSpline
 70
8
 71
3
 72
8
 73
4
 74
0
 40
0
 40
0
 40
0
 40
0
 40
1
 40
1
 40
1
 40
1
 10
233.620920
 20
165.132269
 30
0.0
 10
233.621180
 20
165.846973
 30
0.0
 10
233.240039
 20
166.507499
 30
0.0
 10
232.621130
 20
166.864926
 30
0.0
  0
SPLINE
  5
107
100
AcDbEntity
  8
Visible
 62
7
100
AcDbSpline
 70
8
 71
3
 72
8
 73
4
 74
0
 40
0
 40
0
 40
0
 40
0
 40
1
 40
1
 40
1
 40
1
 10
232.621130
 20
166.864926
 30
0.0
 10
232.002221
 20
167.222353
 30
0.0
 10
231.239618
 20
167.222353
 30
0.0
 10
230.620710
 20
166.864926
 30
0.0
  0
SPLINE
  5
108
100
AcDbEntity
  8
Visible
 62
7
100
AcDbSpline
 70
8
 71
3
 72
8
 73
4
 74
0
 40
0
 40
0
 40
0
 40
0
 40
1
 40
1
 40
1
 40
1
 10
230.620710
 20
166.864926
 30
0.0
 10
230.001801
 20
166.507499
 30
0.0
 10
229.620660
 20
165.846973
 30
0.0
 10
229.620920
 20
165.132269
 30
0.0
  0
SPLINE
  5
109
100
AcDbEntity
  8
Visible
 62
7
100
AcDbSpline
 70
8
 71
3
 72
8
 73
4
 74
0
 40
0
 40
0
 40
0
 40
0
 40
1
 40
1
 40
1
 40
1
 10
229.620920
 20
165.132269
 30
0.0
 10
229.620660
 20
164.417564
 30
0.0
 10
230.001801
 20
163.757039
 30
0.0
 10
230.620710
 20
163.399612
 30
0.0
  0
SPLINE
  5
10a
100
AcDbEntity
  8
Visible
 62
7
100
AcDbSpline
 70
8
 71
3
 72
8
 73
4
 74
0
 40
0
 40
0
 40
0
 40
0
 40
1
 40
1
 40
1
 40
1
 10
230.620710
 20
163.399612
 30
0.0
 10
231.239618
 20
163.042184
 30
0.0
 10
232.002221
 20
163.042184
 30
0.0
 10
232.621130
 20
163.399612
 30
0.0
  0
SPLINE
  5
10b
100
AcDbEntity
  8
Visible
 62
7
100
AcDbSpline
 70
8
 71
3
 72
8
 73
4
 74
0
 40
0
 40
0
 40
0
 40
0
 40
1
 40
1
 40
1
 40
1
 10
232.621130
 20
163.399612
 30
0.0
 10
233.240039
 20
163.757039
 30
0.0
 10
233.621180
 20
164.417564
 30
0.0
 10
233.620920
 20
165.132269
 30
0.0
  0
LWPOLYLINE
  5
10c
100
AcDbEntity
  8
Visible
 62
7
100
AcDbPolyline
 90
1
 70
1
 10
153.620918
 20
85.132267
 30
0.0
  0
LWPOLYLINE
  5
10d
100
AcDbEntity
  8
Visible
 62
7
100
AcDbPolyline
 90
1
 70
1
 10
233.620920
 20
165.132269
 30
0.0
  0
SPLINE
  5
10e
100
AcDbEntity
  8
Visible
 62
7
100
AcDbSpline
 70
8
 71
3
 72
8
 73
4
 74
0
 40
0
 40
0
 40
0
 40
0
 40
1
 40
1
 40
1
 40
1
 10
233.620920
 20
135.132268
 30
0.0
 10
233.620518
 20
136.236553
 30
0.0
 10
232.725205
 20
137.131541
 30
0.0
 10
231.620920
 20
137.131541
 30
0.0
  0
SPLINE
  5
10f
100
AcDbEntity
  8
Visible
 62
7
100
AcDbSpline
 70
8
 71
3
 72
8
 73
4
 74
0
 40
0
 40
0
 40
0
 40
0
 40
1
 40
1
 40
1
 40
1
 10
231.620920
 20
137.131541
 30
0.0
 10
230.516634
 20
137.131541
 30
0.0
 10
229.621321
 20
136.236553
 30
0.0
 10
229.620920
 20
135.132268
 30
0.0
  0
LWPOLYLINE
  5
110
100
AcDbEntity
  8
Visible
 62
7
100
AcDbPolyline
 90
2
 70
0
 10
233.620920
 20
135.132268
 30
0.0
 10
233.620920
 20
115.132268
 30
0.0
  0
SPLINE
  5
111
100
AcDbEntity
  8
Visible
 62
7
100
AcDbSpline
 70
8
 71
3
 72
8
 73
4
 74
0
 40
0
 40
0
 40
0
 40
0
 40
1
 40
1
 40
1
 40
1
 10
229.620920
 20
115.132268
 30
0.0
 10
229.621321
 20
114.027983
 30
0.0
 10
230.516634
 20
113.132996
 30
0.0
 10
231.620920
 20
113.132996
 30
0.0
  0
SPLINE
  5
112
100
AcDbEntity
  8
Visible
 62
7
100
AcDbSpline
 70
8
 71
3
 72
8
 73
4
 74
0
 40
0
 40
0
 40
0
 40
0
 40
1
 40
1
 40
1
 40
1
 10
231.620920
 20
113.132996
 30
0.0
 10
232.725205
 20
113.132996
 30
0.0
 10
233.620518
 20
114.027983
 30
0.0
 10
233.620920
 20
115.132268
 30
0.0
  0
LWPOLYLINE
  5
113
100
AcDbEntity
  8
Visible
 62
7
100
AcDbPolyline
 90
2
 70
0
 10
229.620920
 20
115.132268
 30
0.0
 10
229.620920
 20
135.132268
 30
0.0
  0
SPLINE
  5
114
100
AcDbEntity
  8
Visible
 62
7
100
AcDbSpline
 70
8
 71
3
 72
8
 73
4
 74
0
 40
0
 40
0
 40
0
 40
0
 40
1
 40
1
 40
1
 40
1
 10
181.620918
 20
87.132269
 30
0.0
 10
180.516632
 20
87.131867
 30
0.0
 10
179.621645
 20
86.236554
 30
0.0
 10
179.621645
 20
85.132269
 30
0.0
  0
SPLINE
  5
115
100
AcDbEntity
  8
Visible
 62
7
100
AcDbSpline
 70
8
 71
3
 72
8
 73
4
 74
0
 40
0
 40
0
 40
0
 40
0
 40
1
 40
1
 40
1
 40
1
 10
179.621645
 20
85.132269
 30
0.0
 10
179.621645
 20
84.027983
 30
0.0
 10
180.516632
 20
83.132670
 30
0.0
 10
181.620918
 20
83.132269
 30
0.0
  0
LWPOLYLINE
  5
116
100
AcDbEntity
  8
Visible
 62
7
100
AcDbPolyline
 90
2
 70
0
 10
181.620918
 20
87.132269
 30
0.0
 10
201.620920
 20
87.132269
 30
0.0
  0
SPLINE
  5
117
100
AcDbEntity
  8
Visible
 62
7
100
AcDbSpline
 70
8
 71
3
 72
8
 73
4
 74
0
 40
0
 40
0
 40
0
 40
0
 40
1
 40
1
 40
1
 40
1
 10
201.620920
 20
83.132269
 30
0.0
 10
202.725206
 20
83.132670
 30
0.0
 10
203.620193
 20
84.027983
 30
0.0
 10
203.620193
 20
85.132269
 30
0.0
  0
SPLINE
  5
118
100
AcDbEntity
  8
Visible
 62
7
100
AcDbSpline
 70
8
 71
3
 72
8
 73
4
 74
0
 40
0
 40
0
 40
0
 40
0
 40
1
 40
1
 40
1
 40
1
 10
203.620193
 20
85.132269
 30
0.0
 10
203.620193
 20
86.236554
 30
0.0
 10
202.725206
 20
87.131867
 30
0.0
 10
201.620920
 20
87.132269
 30
0.0
  0
LWPOLYLINE
  5
119
100
AcDbEntity
  8
Visible
 62
7
100
AcDbPolyline
 90
2
 70
0
 10
201.620920
 20
83.132269
 30
0.0
 10
181.620918
 20
83.132269
 30
0.0
  0
SPLINE
  5
11a
100
AcDbEntity
  8
Visible
 62
7
100
AcDbSpline
 70
8
 71
3
 72
8
 73
4
 74
0
 40
0
 40
0
 40
0
 40
0
 40
1
 40
1
 40
1
 40
1
 10
153.620918
 20
135.132268
 30
0.0
 10
153.620918
 20
135.846799
 30
0.0
 10
153.239720
 20
136.507053
 30
0.0
 10
152.620918
 20
136.864319
 30
0.0
  0
SPLINE
  5
11b
100
AcDbEntity
  8
Visible
 62
7
100
AcDbSpline
 70
8
 71
3
 72
8
 73
4
 74
0
 40
0
 40
0
 40
0
 40
0
 40
1
 40
1
 40
1
 40
1
 10
152.620918
 20
136.864319
 30
0.0
 10
152.002116
 20
137.221584
 30
0.0
 10
151.239720
 20
137.221584
 30
0.0
 10
150.620918
 20
136.864319
 30
0.0
  0
SPLINE
  5
11c
100
AcDbEntity
  8
Visible
 62
7
100
AcDbSpline
 70
8
 71
3
 72
8
 73
4
 74
0
 40
0
 40
0
 40
0
 40
0
 40
1
 40
1
 40
1
 40
1
 10
150.620918
 20
136.864319
 30
0.0
 10
150.002116
 20
136.507053
 30
0.0
 10
149.620918
 20
135.846799
 30
0.0
 10
149.620918
 20
135.132268
 30
0.0
  0
LWPOLYLINE
  5
11d
100
AcDbEntity
  8
Visible
 62
7
100
AcDbPolyline
 90
2
 70
0
 10
153.620918
 20
135.132268
 30
0.0
 10
153.620918
 20
115.132268
 30
0.0
  0
SPLINE
  5
11e
100
AcDbEntity
  8
Visible
 62
7
100
AcDbSpline
 70
8
 71
3
 72
8
 73
4
 74
0
 40
0
 40
0
 40
0
 40
0
 40
1
 40
1
 40
1
 40
1
 10
149.620918
 20
115.132268
 30
0.0
 10
149.620918
 20
114.417737
 30
0.0
 10
150.002116
 20
113.757483
 30
0.0
 10
150.620918
 20
113.400218
 30
0.0
  0
SPLINE
  5
11f
100
AcDbEntity
  8
Visible
 62
7
100
AcDbSpline
 70
8
 71
3
 72
8
 73
4
 74
0
 40
0
 40
0
 40
0
 40
0
 40
1
 40
1
 40
1
 40
1
 10
150.620918
 20
113.400218
 30
0.0
 10
151.239720
 20
113.042952
 30
0.0
 10
152.002116
 20
113.042952
 30
0.0
 10
152.620918
 20
113.400218
 30
0.0
  0
SPLINE
  5
120
100
AcDbEntity
  8
Visible
 62
7
100
AcDbSpline
 70
8
 71
3
 72
8
 73
4
 74
0
 40
0
 40
0
 40
0
 40
0
 40
1
 40
1
 40
1
 40
1
 10
152.620918
 20
113.400218
 30
0.0
 10
153.239720
 20
113.757483
 30
0.0
 10
153.620918
 20
114.417737
 30
0.0
 10
153.620918
 20
115.132268
 30
0.0
  0
LWPOLYLINE
  5
121
100
AcDbEntity
  8
Visible
 62
7
100
AcDbPolyline
 90
2
 70
0
 10
149.620918
 20
115.132268
 30
0.0
 10
149.620918
 20
135.132268
 30
0.0
  0
SPLINE
  5
122
100
AcDbEntity
  8
Visible
 62
7
100
AcDbSpline
 70
8
 71
3
 72
8
 73
4
 74
0
 40
0
 40
0
 40
0
 40
0
 40
1
 40
1
 40
1
 40
1
 10
181.620918
 20
167.132267
 30
0.0
 10
180.906387
 20
167.132267
 30
0.0
 10
180.246133
 20
166.751070
 30
0.0
 10
179.888867
 20
166.132268
 30
0.0
  0
SPLINE
  5
123
100
AcDbEntity
  8
Visible
 62
7
100
AcDbSpline
 70
8
 71
3
 72
8
 73
4
 74
0
 40
0
 40
0
 40
0
 40
0
 40
1
 40
1
 40
1
 40
1
 10
179.888867
 20
166.132268
 30
0.0
 10
179.531601
 20
165.513465
 30
0.0
 10
179.531601
 20
164.751070
 30
0.0
 10
179.888867
 20
164.132268
 30
0.0
  0
SPLINE
  5
124
100
AcDbEntity
  8
Visible
 62
7
100
AcDbSpline
 70
8
 71
3
 72
8
 73
4
 74
0
 40
0
 40
0
 40
0
 40
0
 40
1
 40
1
 40
1
 40
1
 10
179.888867
 20
164.132268
 30
0.0
 10
180.246133
 20
163.513465
 30
0.0
 10
180.906387
 20
163.132268
 30
0.0
 10
181.620918
 20
163.132268
 30
0.0
  0
LWPOLYLINE
  5
125
100
AcDbEntity
  8
Visible
 62
7
100
AcDbPolyline
 90
2
 70
0
 10
181.620918
 20
167.132267
 30
0.0
 10
201.620920
 20
167.132267
 30
0.0
  0
SPLINE
  5
126
100
AcDbEntity
  8
Visible
 62
7
100
AcDbSpline
 70
8
 71
3
 72
8
 73
4
 74
0
 40
0
 40
0
 40
0
 40
0
 40
1
 40
1
 40
1
 40
1
 10
201.620920
 20
163.132268
 30
0.0
 10
202.335451
 20
163.132268
 30
0.0
 10
202.995705
 20
163.513465
 30
0.0
 10
203.352971
 20
164.132268
 30
0.0
  0
SPLINE
  5
127
100
AcDbEntity
  8
Visible
 62
7
100
AcDbSpline
 70
8
 71
3
 72
8
 73
4
 74
0
 40
0
 40
0
 40
0
 40
0
 40
1
 40
1
 40
1
 40
1
 10
203.352971
 20
164.132268
 30
0.0
 10
203.710236
 20
164.751070
 30
0.0
 10
203.710236
 20
165.513465
 30
0.0
 10
203.352971
 20
166.132268
 30
0.0
  0
SPLINE
  5
128
100
AcDbEntity
  8
Visible
 62
7
100
AcDbSpline
 70
8
 71
3
 72
8
 73
4
 74
0
 40
0
 40
0
 40
0
 40
0
 40
1
 40
1
 40
1
 40
1
 10
203.352971
 20
166.132268
 30
0.0
 10
202.995705
 20
166.751070
 30
0.0
 10
202.335451
 20
167.132267
 30
0.0
 10
201.620920
 20
167.132267
 30
0.0
  0
SPLINE
  5
129
100
AcDbEntity
  8
Visible
 62
7
100
AcDbSpline
 70
8
 71
3
 72
8
 73
4
 74
0
 40
0
 40
0
 40
0
 40
0
 40
1
 40
1
 40
1
 40
1
 10
153.620918
 20
165.132269
 30
0.0
 10
153.620918
 20
165.846800
 30
0.0
 10
153.239720
 20
166.507054
 30
0.0
 10
152.620918
 20
166.864320
 30
0.0
  0
SPLINE
  5
12a
100
AcDbEntity
  8
Visible
 62
7
100
AcDbSpline
 70
8
 71
3
 72
8
 73
4
 74
0
 40
0
 40
0
 40
0
 40
0
 40
1
 40
1
 40
1
 40
1
 10
152.620918
 20
166.864320
 30
0.0
 10
152.002116
 20
167.221585
 30
0.0
 10
151.239720
 20
167.221585
 30
0.0
 10
150.620918
 20
166.864320
 30
0.0
  0
SPLINE
  5
12b
100
AcDbEntity
  8
Visible
 62
7
100
AcDbSpline
 70
8
 71
3
 72
8
 73
4
 74
0
 40
0
 40
0
 40
0
 40
0
 40
1
 40
1
 40
1
 40
1
 10
150.620918
 20
166.864320
 30
0.0
 10
150.002116
 20
166.507054
 30
0.0
 10
149.620918
 20
165.846800
 30
0.0
 10
149.620918
 20
165.132269
 30
0.0
  0
SPLINE
  5
12c
100
AcDbEntity
  8
Visible
 62
7
100
AcDbSpline
 70
8
 71
3
 72
8
 73
4
 74
0
 40
0
 40
0
 40
0
 40
0
 40
1
 40
1
 40
1
 40
1
 10
149.620918
 20
165.132269
 30
0.0
 10
149.620918
 20
164.417738
 30
0.0
 10
150.002116
 20
163.757484
 30
0.0
 10
150.620918
 20
163.400218
 30
0.0
  0
SPLINE
  5
12d
100
AcDbEntity
  8
Visible
 62
7
100
AcDbSpline
 70
8
 71
3
 72
8
 73
4
 74
0
 40
0
 40
0
 40
0
 40
0
 40
1
 40
1
 40
1
 40
1
 10
150.620918
 20
163.400218
 30
0.0
 10
151.239720
 20
163.042952
 30
0.0
 10
152.002116
 20
163.042952
 30
0.0
 10
152.620918
 20
163.400218
 30
0.0
  0
SPLINE
  5
12e
100
AcDbEntity
  8
Visible
 62
7
100
AcDbSpline
 70
8
 71
3
 72
8
 73
4
 74
0
 40
0
 40
0
 40
0
 40
0
 40
1
 40
1
 40
1
 40
1
 10
152.620918
 20
163.400218
 30
0.0
 10
153.239720
 20
163.757484
 30
0.0
 10
153.620918
 20
164.417738
 30
0.0
 10
153.620918
 20
165.132269
 30
0.0
  0
LWPOLYLINE
  5
12f
100
AcDbEntity
  8
Visible
 62
7
100
AcDbPolyline
 90
2
 70
0
 10
201.620920
 20
163.132268
 30
0.0
 10
181.620918
 20
163.132268
 30
0.0
  0
SPLINE
  5
130
100
AcDbEntity
  8
Visible
 62
7
100
AcDbSpline
 70
8
 71
3
 72
8
 73
4
 74
0
 40
0
 40
0
 40
0
 40
0
 40
1
 40
1
 40
1
 40
1
 10
233.620920
 20
85.132267
 30
0.0
 10
233.621180
 20
85.846972
 30
0.0
 10
233.240039
 20
86.507497
 30
0.0
 10
232.621130
 20
86.864925
 30
0.0
  0
SPLINE
  5
131
100
AcDbEntity
  8
Visible
 62
7
100
AcDbSpline
 70
8
 71
3
 72
8
 73
4
 74
0
 40
0
 40
0
 40
0
 40
0
 40
1
 40
1
 40
1
 40
1
 10
232.621130
 20
86.864925
 30
0.0
 10
232.002221
 20
87.222352
 30
0.0
 10
231.239618
 20
87.222352
 30
0.0
 10
230.620710
 20
86.864925
 30
0.0
  0
SPLINE
  5
132
100
AcDbEntity
  8
Visible
 62
7
100
AcDbSpline
 70
8
 71
3
 72
8
 73
4
 74
0
 40
0
 40
0
 40
0
 40
0
 40
1
 40
1
 40
1
 40
1
 10
230.620710
 20
86.864925
 30
0.0
 10
230.001801
 20
86.507497
 30
0.0
 10
229.620660
 20
85.846972
 30
0.0
 10
229.620920
 20
85.132267
 30
0.0
  0
SPLINE
  5
133
100
AcDbEntity
  8
Visible
 62
7
100
AcDbSpline
 70
8
 71
3
 72
8
 73
4
 74
0
 40
0
 40
0
 40
0
 40
0
 40
1
 40
1
 40
1
 40
1
 10
229.620920
 20
85.132267
 30
0.0
 10
229.620660
 20
84.417563
 30
0.0
 10
230.001801
 20
83.757038
 30
0.0
 10
230.620710
 20
83.399610
 30
0.0
  0
SPLINE
  5
134
100
AcDbEntity
  8
Visible
 62
7
100
AcDbSpline
 70
8
 71
3
 72
8
 73
4
 74
0
 40
0
 40
0
 40
0
 40
0
 40
1
 40
1
 40
1
 40
1
 10
230.620710
 20
83.399610
 30
0.0
 10
231.239618
 20
83.042183
 30
0.0
 10
232.002221
 20
83.042183
 30
0.0
 10
232.621130
 20
83.399610
 30
0.0
  0
SPLINE
  5
135
100
AcDbEntity
  8
Visible
 62
7
100
AcDbSpline
 70
8
 71
3
 72
8
 73
4
 74
0
 40
0
 40
0
 40
0
 40
0
 40
1
 40
1
 40
1
 40
1
 10
232.621130
 20
83.399610
 30
0.0
 10
233.240039
 20
83.757038
 30
0.0
 10
233.621180
 20
84.417563
 30
0.0
 10
233.620920
 20
85.132267
 30
0.0
  0
LWPOLYLINE
  5
136
100
AcDbEntity
  8
Visible
 62
7
100
AcDbPolyline
 90
1
 70
1
 10
153.620918
 20
165.132269
 30
0.0
  0
SPLINE
  5
137
100
AcDbEntity
  8
Visible
 62
7
100
AcDbSpline
 70
8
 71
3
 72
8
 73
4
 74
0
 40
0
 40
0
 40
0
 40
0
 40
1
 40
1
 40
1
 40
1
 10
245.582444
 20
35.132256
 30
0.0
 10
245.582444
 20
35.846787
 30
0.0
 10
245.201246
 20
36.507042
 30
0.0
 10
244.582444
 20
36.864307
 30
0.0
  0
SPLINE
  5
138
100
AcDbEntity
  8
Visible
 62
7
100
AcDbSpline
 70
8
 71
3
 72
8
 73
4
 74
0
 40
0
 40
0
 40
0
 40
0
 40
1
 40
1
 40
1
 40
1
 10
244.582444
 20
36.864307
 30
0.0
 10
243.963642
 20
37.221573
 30
0.0
 10
243.201246
 20
37.221573
 30
0.0
 10
242.582444
 20
36.864307
 30
0.0
  0
SPLINE
  5
139
100
AcDbEntity
  8
Visible
 62
7
100
AcDbSpline
 70
8
 71
3
 72
8
 73
4
 74
0
 40
0
 40
0
 40
0
 40
0
 40
1
 40
1
 40
1
 40
1
 10
242.582444
 20
36.864307
 30
0.0
 10
241.963642
 20
36.507042
 30
0.0
 10
241.582444
 20
35.846787
 30
0.0
 10
241.582444
 20
35.132256
 30
0.0
  0
SPLINE
  5
13a
100
AcDbEntity
  8
Visible
 62
7
100
AcDbSpline
 70
8
 71
3
 72
8
 73
4
 74
0
 40
0
 40
0
 40
0
 40
0
 40
1
 40
1
 40
1
 40
1
 10
241.582444
 20
35.132256
 30
0.0
 10
241.582444
 20
34.417725
 30
0.0
 10
241.963642
 20
33.757471
 30
0.0
 10
242.582444
 20
33.400205
 30
0.0
  0
SPLINE
  5
13b
100
AcDbEntity
  8
Visible
 62
7
100
AcDbSpline
 70
8
 71
3
 72
8
 73
4
 74
0
 40
0
 40
0
 40
0
 40
0
 40
1
 40
1
 40
1
 40
1
 10
242.582444
 20
33.400205
 30
0.0
 10
243.201246
 20
33.042940
 30
0.0
 10
243.963642
 20
33.042940
 30
0.0
 10
244.582444
 20
33.400205
 30
0.0
  0
SPLINE
  5
13c
100
AcDbEntity
  8
Visible
 62
7
100
AcDbSpline
 70
8
 71
3
 72
8
 73
4
 74
0
 40
0
 40
0
 40
0
 40
0
 40
1
 40
1
 40
1
 40
1
 10
244.582444
 20
33.400205
 30
0.0
 10
245.201246
 20
33.757471
 30
0.0
 10
245.582444
 20
34.417725
 30
0.0
 10
245.582444
 20
35.132256
 30
0.0
  0
LWPOLYLINE
  5
13d
100
AcDbEntity
  8
Visible
 62
7
100
AcDbPolyline
 90
1
 70
1
 10
233.620920
 20
85.132267
 30
0.0
  0
SPLINE
  5
13e
100
AcDbEntity
  8
Visible
 62
7
100
AcDbSpline
 70
8
 71
3
 72
8
 73
4
 74
0
 40
0
 40
0
 40
0
 40
0
 40
1
 40
1
 40
1
 40
1
 10
89.697871
 20
125.132269
 30
0.0
 10
89.697871
 20
125.846801
 30
0.0
 10
89.316673
 20
126.507055
 30
0.0
 10
88.697871
 20
126.864320
 30
0.0
  0
SPLINE
  5
13f
100
AcDbEntity
  8
Visible
 62
7
100
AcDbSpline
 70
8
 71
3
 72
8
 73
4
 74
0
 40
0
 40
0
 40
0
 40
0
 40
1
 40
1
 40
1
 40
1
 10
88.697871
 20
126.864320
 30
0.0
 10
88.079068
 20
127.221586
 30
0.0
 10
87.316673
 20
127.221586
 30
0.0
 10
86.697871
 20
126.864320
 30
0.0
  0
SPLINE
  5
140
100
AcDbEntity
  8
Visible
 62
7
100
AcDbSpline
 70
8
 71
3
 72
8
 73
4
 74
0
 40
0
 40
0
 40
0
 40
0
 40
1
 40
1
 40
1
 40
1
 10
86.697871
 20
126.864320
 30
0.0
 10
86.079069
 20
126.507055
 30
0.0
 10
85.697871
 20
125.846801
 30
0.0
 10
85.697871
 20
125.132269
 30
0.0
  0
SPLINE
  5
141
100
AcDbEntity
  8
Visible
 62
7
100
AcDbSpline
 70
8
 71
3
 72
8
 73
4
 74
0
 40
0
 40
0
 40
0
 40
0
 40
1
 40
1
 40
1
 40
1
 10
85.697871
 20
125.132269
 30
0.0
 10
85.697871
 20
124.417738
 30
0.0
 10
86.079069
 20
123.757484
 30
0.0
 10
86.697871
 20
123.400219
 30
0.0
  0
SPLINE
  5
142
100
AcDbEntity
  8
Visible
 62
7
100
AcDbSpline
 70
8
 71
3
 72
8
 73
4
 74
0
 40
0
 40
0
 40
0
 40
0
 40
1
 40
1
 40
1
 40
1
 10
86.697871
 20
123.400219
 30
0.0
 10
87.316673
 20
123.042953
 30
0.0
 10
88.079068
 20
123.042953
 30
0.0
 10
88.697871
 20
123.400219
 30
0.0
  0
SPLINE
  5
143
100
AcDbEntity
  8
Visible
 62
7
100
AcDbSpline
 70
8
 71
3
 72
8
 73
4
 74
0
 40
0
 40
0
 40
0
 40
0
 40
1
 40
1
 40
1
 40
1
 10
88.697871
 20
123.400219
 30
0.0
 10
89.316673
 20
123.757484
 30
0.0
 10
89.697871
 20
124.417738
 30
0.0
 10
89.697871
 20
125.132269
 30
0.0
  0
LWPOLYLINE
  5
144
100
AcDbEntity
  8
Visible
 62
7
100
AcDbPolyline
 90
1
 70
1
 10
245.582444
 20
35.132256
 30
0.0
  0
SPLINE
  5
145
100
AcDbEntity
  8
Visible
 62
7
100
AcDbSpline
 70
8
 71
3
 72
8
 73
4
 74
0
 40
0
 40
0
 40
0
 40
0
 40
1
 40
1
 40
1
 40
1
 10
297.543959
 20
125.132269
 30
0.0
 10
297.544782
 20
125.847348
 30
0.0
 10
297.163764
 20
126.508460
 30
0.0
 10
296.544625
 20
126.866237
 30
0.0
  0
SPLINE
  5
146
100
AcDbEntity
  8
Visible
 62
7
100
AcDbSpline
 70
8
 71
3
 72
8
 73
4
 74
0
 40
0
 40
0
 40
0
 40
0
 40
1
 40
1
 40
1
 40
1
 10
296.544625
 20
126.866237
 30
0.0
 10
295.925485
 20
127.224014
 30
0.0
 10
295.162436
 20
127.224014
 30
0.0
 10
294.543297
 20
126.866237
 30
0.0
  0
SPLINE
  5
147
100
AcDbEntity
  8
Visible
 62
7
100
AcDbSpline
 70
8
 71
3
 72
8
 73
4
 74
0
 40
0
 40
0
 40
0
 40
0
 40
1
 40
1
 40
1
 40
1
 10
294.543297
 20
126.866237
 30
0.0
 10
293.924157
 20
126.508460
 30
0.0
 10
293.543139
 20
125.847348
 30
0.0
 10
293.543962
 20
125.132269
 30
0.0
  0
SPLINE
  5
148
100
AcDbEntity
  8
Visible
 62
7
100
AcDbSpline
 70
8
 71
3
 72
8
 73
4
 74
0
 40
0
 40
0
 40
0
 40
0
 40
1
 40
1
 40
1
 40
1
 10
293.543962
 20
125.132269
 30
0.0
 10
293.543139
 20
124.417191
 30
0.0
 10
293.924157
 20
123.756079
 30
0.0
 10
294.543297
 20
123.398302
 30
0.0
  0
SPLINE
  5
149
100
AcDbEntity
  8
Visible
 62
7
100
AcDbSpline
 70
8
 71
3
 72
8
 73
4
 74
0
 40
0
 40
0
 40
0
 40
0
 40
1
 40
1
 40
1
 40
1
 10
294.543297
 20
123.398302
 30
0.0
 10
295.162436
 20
123.040525
 30
0.0
 10
295.925485
 20
123.040525
 30
0.0
 10
296.544625
 20
123.398302
 30
0.0
  0
SPLINE
  5
14a
100
AcDbEntity
  8
Visible
 62
7
100
AcDbSpline
 70
8
 71
3
 72
8
 73
4
 74
0
 40
0
 40
0
 40
0
 40
0
 40
1
 40
1
 40
1
 40
1
 10
296.544625
 20
123.398302
 30
0.0
 10
297.163764
 20
123.756079
 30
0.0
 10
297.544782
 20
124.417191
 30
0.0
 10
297.543959
 20
125.132269
 30
0.0
  0
LWPOLYLINE
  5
14b
100
AcDbEntity
  8
Visible
 62
7
100
AcDbPolyline
 90
1
 70
1
 10
89.697871
 20
125.132269
 30
0.0
  0
LWPOLYLINE
  5
14c
100
AcDbEntity
  8
Visible
 62
7
100
AcDbPolyline
 90
1
 70
1
 10
297.543959
 20
125.132269
 30
0.0
  0
SPLINE
  5
14d
100
AcDbEntity
  8
Visible
 62
7
100
AcDbSpline
 70
8
 71
3
 72
8
 73
4
 74
0
 40
0
 40
0
 40
0
 40
0
 40
1
 40
1
 40
1
 40
1
 10
211.620919
 20
8.132268
 30
0.0
 10
212.724545
 20
8.133599
 30
0.0
 10
213.618506
 20
9.028639
 30
0.0
 10
213.618506
 20
10.132267
 30
0.0
  0
SPLINE
  5
14e
100
AcDbEntity
  8
Visible
 62
7
100
AcDbSpline
 70
8
 71
3
 72
8
 73
4
 74
0
 40
0
 40
0
 40
0
 40
0
 40
1
 40
1
 40
1
 40
1
 10
213.618506
 20
10.132267
 30
0.0
 10
213.618506
 20
11.235894
 30
0.0
 10
212.724545
 20
12.130934
 30
0.0
 10
211.620919
 20
12.132265
 30
0.0
  0
LWPOLYLINE
  5
14f
100
AcDbEntity
  8
Visible
 62
7
100
AcDbPolyline
 90
2
 70
0
 10
171.620919
 20
12.132265
 30
0.0
 10
211.620919
 20
12.132265
 30
0.0
  0
SPLINE
  5
150
100
AcDbEntity
  8
Visible
 62
7
100
AcDbSpline
 70
8
 71
3
 72
8
 73
4
 74
0
 40
0
 40
0
 40
0
 40
0
 40
1
 40
1
 40
1
 40
1
 10
171.620919
 20
12.132265
 30
0.0
 10
170.517293
 20
12.130934
 30
0.0
 10
169.623332
 20
11.235894
 30
0.0
 10
169.623332
 20
10.132267
 30
0.0
  0
SPLINE
  5
151
100
AcDbEntity
  8
Visible
 62
7
100
AcDbSpline
 70
8
 71
3
 72
8
 73
4
 74
0
 40
0
 40
0
 40
0
 40
0
 40
1
 40
1
 40
1
 40
1
 10
169.623332
 20
10.132267
 30
0.0
 10
169.623332
 20
9.028639
 30
0.0
 10
170.517293
 20
8.133599
 30
0.0
 10
171.620919
 20
8.132268
 30
0.0
  0
LWPOLYLINE
  5
152
100
AcDbEntity
  8
Visible
 62
7
100
AcDbPolyline
 90
2
 70
0
 10
211.620919
 20
8.132268
 30
0.0
 10
171.620919
 20
8.132268
 30
0.0
  0
SPLINE
  5
153
100
AcDbEntity
  8
Visible
 62
7
100
AcDbSpline
 70
8
 71
3
 72
8
 73
4
 74
0
 40
0
 40
0
 40
0
 40
0
 40
1
 40
1
 40
1
 40
1
 10
75.239868
 20
51.011434
 30
0.0
 10
76.207284
 20
49.339405
 30
0.0
 10
78.346406
 20
48.767292
 30
0.0
 10
80.019332
 20
49.733156
 30
0.0
  0
SPLINE
  5
154
100
AcDbEntity
  8
Visible
 62
7
100
AcDbSpline
 70
8
 71
3
 72
8
 73
4
 74
0
 40
0
 40
0
 40
0
 40
0
 40
1
 40
1
 40
1
 40
1
 10
80.019332
 20
49.733156
 30
0.0
 10
81.692258
 20
50.699020
 30
0.0
 10
82.266355
 20
52.837611
 30
0.0
 10
81.302043
 20
54.511432
 30
0.0
  0
LWPOLYLINE
  5
155
100
AcDbEntity
  8
Visible
 62
7
100
AcDbPolyline
 90
2
 70
0
 10
75.302045
 20
64.903739
 30
0.0
 10
81.302046
 20
54.511432
 30
0.0
  0
SPLINE
  5
156
100
AcDbEntity
  8
Visible
 62
7
100
AcDbSpline
 70
8
 71
3
 72
8
 73
4
 74
0
 40
0
 40
0
 40
0
 40
0
 40
1
 40
1
 40
1
 40
1
 10
75.302045
 20
64.903739
 30
0.0
 10
74.335546
 20
66.577763
 30
0.0
 10
72.194980
 20
67.151326
 30
0.0
 10
70.520955
 20
66.184828
 30
0.0
  0
SPLINE
  5
157
100
AcDbEntity
  8
Visible
 62
7
100
AcDbSpline
 70
8
 71
3
 72
8
 73
4
 74
0
 40
0
 40
0
 40
0
 40
0
 40
1
 40
1
 40
1
 40
1
 10
70.520955
 20
66.184828
 30
0.0
 10
68.846931
 20
65.218329
 30
0.0
 10
68.273368
 20
63.077763
 30
0.0
 10
69.239867
 20
61.403738
 30
0.0
  0
LWPOLYLINE
  5
158
100
AcDbEntity
  8
Visible
 62
7
100
AcDbPolyline
 90
2
 70
0
 10
75.239868
 20
51.011434
 30
0.0
 10
69.239867
 20
61.403738
 30
0.0
  0
SPLINE
  5
159
100
AcDbEntity
  8
Visible
 62
7
100
AcDbSpline
 70
8
 71
3
 72
8
 73
4
 74
0
 40
0
 40
0
 40
0
 40
0
 40
1
 40
1
 40
1
 40
1
 10
163.640157
 20
195.132270
 30
0.0
 10
163.640157
 20
194.417739
 30
0.0
 10
164.021355
 20
193.757485
 30
0.0
 10
164.640157
 20
193.400219
 30
0.0
  0
SPLINE
  5
15a
100
AcDbEntity
  8
Visible
 62
7
100
AcDbSpline
 70
8
 71
3
 72
8
 73
4
 74
0
 40
0
 40
0
 40
0
 40
0
 40
1
 40
1
 40
1
 40
1
 10
164.640157
 20
193.400219
 30
0.0
 10
165.258959
 20
193.042953
 30
0.0
 10
166.021355
 20
193.042953
 30
0.0
 10
166.640157
 20
193.400219
 30
0.0
  0
SPLINE
  5
15b
100
AcDbEntity
  8
Visible
 62
7
100
AcDbSpline
 70
8
 71
3
 72
8
 73
4
 74
0
 40
0
 40
0
 40
0
 40
0
 40
1
 40
1
 40
1
 40
1
 10
166.640157
 20
193.400219
 30
0.0
 10
167.258959
 20
193.757485
 30
0.0
 10
167.640157
 20
194.417739
 30
0.0
 10
167.640157
 20
195.132270
 30
0.0
  0
LWPOLYLINE
  5
15c
100
AcDbEntity
  8
Visible
 62
7
100
AcDbPolyline
 90
2
 70
0
 10
167.640157
 20
235.132269
 30
0.0
 10
167.640157
 20
195.132270
 30
0.0
  0
SPLINE
  5
15d
100
AcDbEntity
  8
Visible
 62
7
100
AcDbSpline
 70
8
 71
3
 72
8
 73
4
 74
0
 40
0
 40
0
 40
0
 40
0
 40
1
 40
1
 40
1
 40
1
 10
167.640157
 20
235.132269
 30
0.0
 10
167.640157
 20
235.846800
 30
0.0
 10
167.258959
 20
236.507054
 30
0.0
 10
166.640157
 20
236.864320
 30
0.0
  0
SPLINE
  5
15e
100
AcDbEntity
  8
Visible
 62
7
100
AcDbSpline
 70
8
 71
3
 72
8
 73
4
 74
0
 40
0
 40
0
 40
0
 40
0
 40
1
 40
1
 40
1
 40
1
 10
166.640157
 20
236.864320
 30
0.0
 10
166.021355
 20
237.221585
 30
0.0
 10
165.258959
 20
237.221585
 30
0.0
 10
164.640157
 20
236.864320
 30
0.0
  0
SPLINE
  5
15f
100
AcDbEntity
  8
Visible
 62
7
100
AcDbSpline
 70
8
 71
3
 72
8
 73
4
 74
0
 40
0
 40
0
 40
0
 40
0
 40
1
 40
1
 40
1
 40
1
 10
164.640157
 20
236.864320
 30
0.0
 10
164.021355
 20
236.507054
 30
0.0
 10
163.640157
 20
235.846800
 30
0.0
 10
163.640157
 20
235.132269
 30
0.0
  0
SPLINE
  5
160
100
AcDbEntity
  8
Visible
 62
7
100
AcDbSpline
 70
8
 71
3
 72
8
 73
4
 74
0
 40
0
 40
0
 40
0
 40
0
 40
1
 40
1
 40
1
 40
1
 10
115.678634
 20
170.132269
 30
0.0
 10
115.678634
 20
170.846801
 30
0.0
 10
115.297436
 20
171.507055
 30
0.0
 10
114.678634
 20
171.864320
 30
0.0
  0
SPLINE
  5
161
100
AcDbEntity
  8
Visible
 62
7
100
AcDbSpline
 70
8
 71
3
 72
8
 73
4
 74
0
 40
0
 40
0
 40
0
 40
0
 40
1
 40
1
 40
1
 40
1
 10
114.678634
 20
171.864320
 30
0.0
 10
114.059832
 20
172.221586
 30
0.0
 10
113.297436
 20
172.221586
 30
0.0
 10
112.678634
 20
171.864320
 30
0.0
  0
SPLINE
  5
162
100
AcDbEntity
  8
Visible
 62
7
100
AcDbSpline
 70
8
 71
3
 72
8
 73
4
 74
0
 40
0
 40
0
 40
0
 40
0
 40
1
 40
1
 40
1
 40
1
 10
112.678634
 20
171.864320
 30
0.0
 10
112.059832
 20
171.507055
 30
0.0
 10
111.678634
 20
170.846801
 30
0.0
 10
111.678634
 20
170.132269
 30
0.0
  0
SPLINE
  5
163
100
AcDbEntity
  8
Visible
 62
7
100
AcDbSpline
 70
8
 71
3
 72
8
 73
4
 74
0
 40
0
 40
0
 40
0
 40
0
 40
1
 40
1
 40
1
 40
1
 10
111.678634
 20
170.132269
 30
0.0
 10
111.678634
 20
169.417738
 30
0.0
 10
112.059832
 20
168.757484
 30
0.0
 10
112.678634
 20
168.400219
 30
0.0
  0
SPLINE
  5
164
100
AcDbEntity
  8
Visible
 62
7
100
AcDbSpline
 70
8
 71
3
 72
8
 73
4
 74
0
 40
0
 40
0
 40
0
 40
0
 40
1
 40
1
 40
1
 40
1
 10
112.678634
 20
168.400219
 30
0.0
 10
113.297436
 20
168.042953
 30
0.0
 10
114.059832
 20
168.042953
 30
0.0
 10
114.678634
 20
168.400219
 30
0.0
  0
SPLINE
  5
165
100
AcDbEntity
  8
Visible
 62
7
100
AcDbSpline
 70
8
 71
3
 72
8
 73
4
 74
0
 40
0
 40
0
 40
0
 40
0
 40
1
 40
1
 40
1
 40
1
 10
114.678634
 20
168.400219
 30
0.0
 10
115.297436
 20
168.757484
 30
0.0
 10
115.678634
 20
169.417738
 30
0.0
 10
115.678634
 20
170.132269
 30
0.0
  0
LWPOLYLINE
  5
166
100
AcDbEntity
  8
Visible
 62
7
100
AcDbPolyline
 90
2
 70
0
 10
163.640157
 20
195.132270
 30
0.0
 10
163.640157
 20
235.132269
 30
0.0
  0
SPLINE
  5
167
100
AcDbEntity
  8
Visible
 62
7
100
AcDbSpline
 70
8
 71
3
 72
8
 73
4
 74
0
 40
0
 40
0
 40
0
 40
0
 40
1
 40
1
 40
1
 40
1
 10
33.604950
 20
18.890597
 30
0.0
 10
33.605210
 20
19.605301
 30
0.0
 10
33.224069
 20
20.265827
 30
0.0
 10
32.605160
 20
20.623254
 30
0.0
  0
SPLINE
  5
168
100
AcDbEntity
  8
Visible
 62
7
100
AcDbSpline
 70
8
 71
3
 72
8
 73
4
 74
0
 40
0
 40
0
 40
0
 40
0
 40
1
 40
1
 40
1
 40
1
 10
32.605160
 20
20.623254
 30
0.0
 10
31.986251
 20
20.980681
 30
0.0
 10
31.223649
 20
20.980681
 30
0.0
 10
30.604740
 20
20.623254
 30
0.0
  0
SPLINE
  5
169
100
AcDbEntity
  8
Visible
 62
7
100
AcDbSpline
 70
8
 71
3
 72
8
 73
4
 74
0
 40
0
 40
0
 40
0
 40
0
 40
1
 40
1
 40
1
 40
1
 10
30.604740
 20
20.623254
 30
0.0
 10
29.985831
 20
20.265827
 30
0.0
 10
29.604690
 20
19.605301
 30
0.0
 10
29.604950
 20
18.890597
 30
0.0
  0
SPLINE
  5
16a
100
AcDbEntity
  8
Visible
 62
7
100
AcDbSpline
 70
8
 71
3
 72
8
 73
4
 74
0
 40
0
 40
0
 40
0
 40
0
 40
1
 40
1
 40
1
 40
1
 10
29.604950
 20
18.890597
 30
0.0
 10
29.604690
 20
18.175892
 30
0.0
 10
29.985831
 20
17.515367
 30
0.0
 10
30.604740
 20
17.157940
 30
0.0
  0
SPLINE
  5
16b
100
AcDbEntity
  8
Visible
 62
7
100
AcDbSpline
 70
8
 71
3
 72
8
 73
4
 74
0
 40
0
 40
0
 40
0
 40
0
 40
1
 40
1
 40
1
 40
1
 10
30.604740
 20
17.157940
 30
0.0
 10
31.223649
 20
16.800512
 30
0.0
 10
31.986251
 20
16.800512
 30
0.0
 10
32.605160
 20
17.157940
 30
0.0
  0
SPLINE
  5
16c
100
AcDbEntity
  8
Visible
 62
7
100
AcDbSpline
 70
8
 71
3
 72
8
 73
4
 74
0
 40
0
 40
0
 40
0
 40
0
 40
1
 40
1
 40
1
 40
1
 10
32.605160
 20
17.157940
 30
0.0
 10
33.224069
 20
17.515367
 30
0.0
 10
33.605210
 20
18.175892
 30
0.0
 10
33.604950
 20
18.890597
 30
0.0
  0
LWPOLYLINE
  5
16d
100
AcDbEntity
  8
Visible
 62
7
100
AcDbPolyline
 90
1
 70
1
 10
115.678634
 20
170.132269
 30
0.0
  0
LWPOLYLINE
  5
16e
100
AcDbEntity
  8
Visible
 62
7
100
AcDbPolyline
 90
1
 70
1
 10
33.604950
 20
18.890597
 30
0.0
  0
SPLINE
  5
16f
100
AcDbEntity
  8
Visible
 62
7
100
AcDbSpline
 70
8
 71
3
 72
8
 73
4
 74
0
 40
0
 40
0
 40
0
 40
0
 40
1
 40
1
 40
1
 40
1
 10
314.001969
 20
61.403738
 30
0.0
 10
314.968467
 20
63.077765
 30
0.0
 10
314.394902
 20
65.218333
 30
0.0
 10
312.720876
 20
66.184832
 30
0.0
  0
SPLINE
  5
170
100
AcDbEntity
  8
Visible
 62
7
100
AcDbSpline
 70
8
 71
3
 72
8
 73
4
 74
0
 40
0
 40
0
 40
0
 40
0
 40
1
 40
1
 40
1
 40
1
 10
312.720876
 20
66.184832
 30
0.0
 10
311.046849
 20
67.151330
 30
0.0
 10
308.906281
 20
66.577766
 30
0.0
 10
307.939782
 20
64.903739
 30
0.0
  0
LWPOLYLINE
  5
171
100
AcDbEntity
  8
Visible
 62
7
100
AcDbPolyline
 90
2
 70
0
 10
301.939800
 20
54.511432
 30
0.0
 10
307.939782
 20
64.903739
 30
0.0
  0
SPLINE
  5
172
100
AcDbEntity
  8
Visible
 62
7
100
AcDbSpline
 70
8
 71
3
 72
8
 73
4
 74
0
 40
0
 40
0
 40
0
 40
0
 40
1
 40
1
 40
1
 40
1
 10
301.939800
 20
54.511432
 30
0.0
 10
300.978455
 20
52.837891
 30
0.0
 10
301.553272
 20
50.701984
 30
0.0
 10
303.224706
 20
49.736979
 30
0.0
  0
SPLINE
  5
173
100
AcDbEntity
  8
Visible
 62
7
100
AcDbSpline
 70
8
 71
3
 72
8
 73
4
 74
0
 40
0
 40
0
 40
0
 40
0
 40
1
 40
1
 40
1
 40
1
 10
303.224706
 20
49.736979
 30
0.0
 10
304.896139
 20
48.771974
 30
0.0
 10
307.033299
 20
49.342116
 30
0.0
 10
308.001959
 20
51.011434
 30
0.0
  0
SPLINE
  5
174
100
AcDbEntity
  8
Visible
 62
7
100
AcDbSpline
 70
8
 71
3
 72
8
 73
4
 74
0
 40
0
 40
0
 40
0
 40
0
 40
1
 40
1
 40
1
 40
1
 10
141.659394
 20
215.132269
 30
0.0
 10
141.659394
 20
215.846801
 30
0.0
 10
141.278196
 20
216.507055
 30
0.0
 10
140.659394
 20
216.864320
 30
0.0
  0
SPLINE
  5
175
100
AcDbEntity
  8
Visible
 62
7
100
AcDbSpline
 70
8
 71
3
 72
8
 73
4
 74
0
 40
0
 40
0
 40
0
 40
0
 40
1
 40
1
 40
1
 40
1
 10
140.659394
 20
216.864320
 30
0.0
 10
140.040592
 20
217.221586
 30
0.0
 10
139.278196
 20
217.221586
 30
0.0
 10
138.659394
 20
216.864320
 30
0.0
  0
SPLINE
  5
176
100
AcDbEntity
  8
Visible
 62
7
100
AcDbSpline
 70
8
 71
3
 72
8
 73
4
 74
0
 40
0
 40
0
 40
0
 40
0
 40
1
 40
1
 40
1
 40
1
 10
138.659394
 20
216.864320
 30
0.0
 10
138.040592
 20
216.507055
 30
0.0
 10
137.659394
 20
215.846801
 30
0.0
 10
137.659394
 20
215.132269
 30
0.0
  0
SPLINE
  5
177
100
AcDbEntity
  8
Visible
 62
7
100
AcDbSpline
 70
8
 71
3
 72
8
 73
4
 74
0
 40
0
 40
0
 40
0
 40
0
 40
1
 40
1
 40
1
 40
1
 10
137.659394
 20
215.132269
 30
0.0
 10
137.659394
 20
214.417738
 30
0.0
 10
138.040592
 20
213.757484
 30
0.0
 10
138.659394
 20
213.400219
 30
0.0
  0
SPLINE
  5
178
100
AcDbEntity
  8
Visible
 62
7
100
AcDbSpline
 70
8
 71
3
 72
8
 73
4
 74
0
 40
0
 40
0
 40
0
 40
0
 40
1
 40
1
 40
1
 40
1
 10
138.659394
 20
213.400219
 30
0.0
 10
139.278196
 20
213.042953
 30
0.0
 10
140.040592
 20
213.042953
 30
0.0
 10
140.659394
 20
213.400219
 30
0.0
  0
SPLINE
  5
179
100
AcDbEntity
  8
Visible
 62
7
100
AcDbSpline
 70
8
 71
3
 72
8
 73
4
 74
0
 40
0
 40
0
 40
0
 40
0
 40
1
 40
1
 40
1
 40
1
 10
140.659394
 20
213.400219
 30
0.0
 10
141.278196
 20
213.757484
 30
0.0
 10
141.659394
 20
214.417738
 30
0.0
 10
141.659394
 20
215.132269
 30
0.0
  0
LWPOLYLINE
  5
17a
100
AcDbEntity
  8
Visible
 62
7
100
AcDbPolyline
 90
2
 70
0
 10
314.001969
 20
61.403738
 30
0.0
 10
308.001959
 20
51.011434
 30
0.0
  0
SPLINE
  5
17b
100
AcDbEntity
  8
Visible
 62
7
100
AcDbSpline
 70
8
 71
3
 72
8
 73
4
 74
0
 40
0
 40
0
 40
0
 40
0
 40
1
 40
1
 40
1
 40
1
 10
42.389558
 20
51.675208
 30
0.0
 10
42.389558
 20
52.389739
 30
0.0
 10
42.008361
 20
53.049993
 30
0.0
 10
41.389558
 20
53.407258
 30
0.0
  0
SPLINE
  5
17c
100
AcDbEntity
  8
Visible
 62
7
100
AcDbSpline
 70
8
 71
3
 72
8
 73
4
 74
0
 40
0
 40
0
 40
0
 40
0
 40
1
 40
1
 40
1
 40
1
 10
41.389558
 20
53.407258
 30
0.0
 10
40.770756
 20
53.764524
 30
0.0
 10
40.008361
 20
53.764524
 30
0.0
 10
39.389558
 20
53.407258
 30
0.0
  0
SPLINE
  5
17d
100
AcDbEntity
  8
Visible
 62
7
100
AcDbSpline
 70
8
 71
3
 72
8
 73
4
 74
0
 40
0
 40
0
 40
0
 40
0
 40
1
 40
1
 40
1
 40
1
 10
39.389558
 20
53.407258
 30
0.0
 10
38.770756
 20
53.049993
 30
0.0
 10
38.389558
 20
52.389739
 30
0.0
 10
38.389558
 20
51.675208
 30
0.0
  0
SPLINE
  5
17e
100
AcDbEntity
  8
Visible
 62
7
100
AcDbSpline
 70
8
 71
3
 72
8
 73
4
 74
0
 40
0
 40
0
 40
0
 40
0
 40
1
 40
1
 40
1
 40
1
 10
38.389558
 20
51.675208
 30
0.0
 10
38.389558
 20
50.960676
 30
0.0
 10
38.770756
 20
50.300422
 30
0.0
 10
39.389558
 20
49.943157
 30
0.0
  0
SPLINE
  5
17f
100
AcDbEntity
  8
Visible
 62
7
100
AcDbSpline
 70
8
 71
3
 72
8
 73
4
 74
0
 40
0
 40
0
 40
0
 40
0
 40
1
 40
1
 40
1
 40
1
 10
39.389558
 20
49.943157
 30
0.0
 10
40.008361
 20
49.585891
 30
0.0
 10
40.770756
 20
49.585891
 30
0.0
 10
41.389558
 20
49.943157
 30
0.0
  0
SPLINE
  5
180
100
AcDbEntity
  8
Visible
 62
7
100
AcDbSpline
 70
8
 71
3
 72
8
 73
4
 74
0
 40
0
 40
0
 40
0
 40
0
 40
1
 40
1
 40
1
 40
1
 10
41.389558
 20
49.943157
 30
0.0
 10
42.008361
 20
50.300422
 30
0.0
 10
42.389558
 20
50.960676
 30
0.0
 10
42.389558
 20
51.675208
 30
0.0
  0
LWPOLYLINE
  5
181
100
AcDbEntity
  8
Visible
 62
7
100
AcDbPolyline
 90
1
 70
1
 10
141.659394
 20
215.132269
 30
0.0
  0
SPLINE
  5
182
100
AcDbEntity
  8
Visible
 62
7
100
AcDbSpline
 70
8
 71
3
 72
8
 73
4
 74
0
 40
0
 40
0
 40
0
 40
0
 40
1
 40
1
 40
1
 40
1
 10
53.844786
 20
113.032903
 30
0.0
 10
53.844786
 20
113.747434
 30
0.0
 10
53.463589
 20
114.407688
 30
0.0
 10
52.844786
 20
114.764954
 30
0.0
  0
SPLINE
  5
183
100
AcDbEntity
  8
Visible
 62
7
100
AcDbSpline
 70
8
 71
3
 72
8
 73
4
 74
0
 40
0
 40
0
 40
0
 40
0
 40
1
 40
1
 40
1
 40
1
 10
52.844786
 20
114.764954
 30
0.0
 10
52.225984
 20
115.122219
 30
0.0
 10
51.463589
 20
115.122219
 30
0.0
 10
50.844786
 20
114.764954
 30
0.0
  0
SPLINE
  5
184
100
AcDbEntity
  8
Visible
 62
7
100
AcDbSpline
 70
8
 71
3
 72
8
 73
4
 74
0
 40
0
 40
0
 40
0
 40
0
 40
1
 40
1
 40
1
 40
1
 10
50.844786
 20
114.764954
 30
0.0
 10
50.225984
 20
114.407688
 30
0.0
 10
49.844786
 20
113.747434
 30
0.0
 10
49.844786
 20
113.032903
 30
0.0
  0
SPLINE
  5
185
100
AcDbEntity
  8
Visible
 62
7
100
AcDbSpline
 70
8
 71
3
 72
8
 73
4
 74
0
 40
0
 40
0
 40
0
 40
0
 40
1
 40
1
 40
1
 40
1
 10
49.844786
 20
113.032903
 30
0.0
 10
49.844786
 20
112.318372
 30
0.0
 10
50.225984
 20
111.658117
 30
0.0
 10
50.844786
 20
111.300852
 30
0.0
  0
SPLINE
  5
186
100
AcDbEntity
  8
Visible
 62
7
100
AcDbSpline
 70
8
 71
3
 72
8
 73
4
 74
0
 40
0
 40
0
 40
0
 40
0
 40
1
 40
1
 40
1
 40
1
 10
50.844786
 20
111.300852
 30
0.0
 10
51.463589
 20
110.943586
 30
0.0
 10
52.225984
 20
110.943586
 30
0.0
 10
52.844786
 20
111.300852
 30
0.0
  0
SPLINE
  5
187
100
AcDbEntity
  8
Visible
 62
7
100
AcDbSpline
 70
8
 71
3
 72
8
 73
4
 74
0
 40
0
 40
0
 40
0
 40
0
 40
1
 40
1
 40
1
 40
1
 10
52.844786
 20
111.300852
 30
0.0
 10
53.463589
 20
111.658117
 30
0.0
 10
53.844786
 20
112.318372
 30
0.0
 10
53.844786
 20
113.032903
 30
0.0
  0
LWPOLYLINE
  5
188
100
AcDbEntity
  8
Visible
 62
7
100
AcDbPolyline
 90
1
 70
1
 10
42.389558
 20
51.675208
 30
0.0
  0
LWPOLYLINE
  5
189
100
AcDbEntity
  8
Visible
 62
7
100
AcDbPolyline
 90
1
 70
1
 10
53.844786
 20
113.032903
 30
0.0
  0
SPLINE
  5
18a
100
AcDbEntity
  8
Visible
 62
7
100
AcDbSpline
 70
8
 71
3
 72
8
 73
4
 74
0
 40
0
 40
0
 40
0
 40
0
 40
1
 40
1
 40
1
 40
1
 10
131.999142
 20
88.400218
 30
0.0
 10
132.954785
 20
88.952937
 30
0.0
 10
133.281851
 20
90.175436
 30
0.0
 10
132.729864
 20
91.131503
 30
0.0
  0
SPLINE
  5
18b
100
AcDbEntity
  8
Visible
 62
7
100
AcDbSpline
 70
8
 71
3
 72
8
 73
4
 74
0
 40
0
 40
0
 40
0
 40
0
 40
1
 40
1
 40
1
 40
1
 10
132.729864
 20
91.131503
 30
0.0
 10
132.177878
 20
92.087570
 30
0.0
 10
130.955630
 20
92.415571
 30
0.0
 10
129.999140
 20
91.864318
 30
0.0
  0
LWPOLYLINE
  5
18c
100
AcDbEntity
  8
Visible
 62
7
100
AcDbPolyline
 90
2
 70
0
 10
95.358126
 20
71.864318
 30
0.0
 10
129.999140
 20
91.864318
 30
0.0
  0
SPLINE
  5
18d
100
AcDbEntity
  8
Visible
 62
7
100
AcDbSpline
 70
8
 71
3
 72
8
 73
4
 74
0
 40
0
 40
0
 40
0
 40
0
 40
1
 40
1
 40
1
 40
1
 10
95.358126
 20
71.864318
 30
0.0
 10
94.402913
 20
71.311402
 30
0.0
 10
94.076161
 20
70.089215
 30
0.0
 10
94.628009
 20
69.133386
 30
0.0
  0
SPLINE
  5
18e
100
AcDbEntity
  8
Visible
 62
7
100
AcDbSpline
 70
8
 71
3
 72
8
 73
4
 74
0
 40
0
 40
0
 40
0
 40
0
 40
1
 40
1
 40
1
 40
1
 10
94.628009
 20
69.133386
 30
0.0
 10
95.179858
 20
68.177556
 30
0.0
 10
96.401679
 20
67.849438
 30
0.0
 10
97.358124
 20
68.400219
 30
0.0
  0
LWPOLYLINE
  5
18f
100
AcDbEntity
  8
Visible
 62
7
100
AcDbPolyline
 90
2
 70
0
 10
131.999142
 20
88.400218
 30
0.0
 10
97.358124
 20
68.400219
 30
0.0
  0
SPLINE
  5
190
100
AcDbEntity
  8
Visible
 62
7
100
AcDbSpline
 70
8
 71
3
 72
8
 73
4
 74
0
 40
0
 40
0
 40
0
 40
0
 40
1
 40
1
 40
1
 40
1
 10
299.481794
 20
164.311762
 30
0.0
 10
300.034078
 20
163.355174
 30
0.0
 10
301.257261
 20
163.027421
 30
0.0
 10
302.213848
 20
163.579706
 30
0.0
  0
SPLINE
  5
191
100
AcDbEntity
  8
Visible
 62
7
100
AcDbSpline
 70
8
 71
3
 72
8
 73
4
 74
0
 40
0
 40
0
 40
0
 40
0
 40
1
 40
1
 40
1
 40
1
 10
302.213848
 20
163.579706
 30
0.0
 10
303.170436
 20
164.131990
 30
0.0
 10
303.498189
 20
165.355173
 30
0.0
 10
302.945904
 20
166.311760
 30
0.0
  0
LWPOLYLINE
  5
192
100
AcDbEntity
  8
Visible
 62
7
100
AcDbPolyline
 90
2
 70
0
 10
282.945891
 20
200.952775
 30
0.0
 10
302.945904
 20
166.311760
 30
0.0
  0
SPLINE
  5
193
100
AcDbEntity
  8
Visible
 62
7
100
AcDbSpline
 70
8
 71
3
 72
8
 73
4
 74
0
 40
0
 40
0
 40
0
 40
0
 40
1
 40
1
 40
1
 40
1
 10
282.945891
 20
200.952775
 30
0.0
 10
282.393607
 20
201.909363
 30
0.0
 10
281.170425
 20
202.237115
 30
0.0
 10
280.213837
 20
201.684831
 30
0.0
  0
SPLINE
  5
194
100
AcDbEntity
  8
Visible
 62
7
100
AcDbSpline
 70
8
 71
3
 72
8
 73
4
 74
0
 40
0
 40
0
 40
0
 40
0
 40
1
 40
1
 40
1
 40
1
 10
280.213837
 20
201.684831
 30
0.0
 10
279.257249
 20
201.132546
 30
0.0
 10
278.929497
 20
199.909364
 30
0.0
 10
279.481781
 20
198.952776
 30
0.0
  0
LWPOLYLINE
  5
195
100
AcDbEntity
  8
Visible
 62
7
100
AcDbPolyline
 90
2
 70
0
 10
299.481794
 20
164.311762
 30
0.0
 10
279.481781
 20
198.952776
 30
0.0
  0
SPLINE
  5
196
100
AcDbEntity
  8
Visible
 62
7
100
AcDbSpline
 70
8
 71
3
 72
8
 73
4
 74
0
 40
0
 40
0
 40
0
 40
0
 40
1
 40
1
 40
1
 40
1
 10
240.752316
 20
70.230344
 30
0.0
 10
239.795731
 20
70.782629
 30
0.0
 10
238.572550
 20
70.454879
 30
0.0
 10
238.020264
 20
69.498294
 30
0.0
  0
SPLINE
  5
197
100
AcDbEntity
  8
Visible
 62
7
100
AcDbSpline
 70
8
 71
3
 72
8
 73
4
 74
0
 40
0
 40
0
 40
0
 40
0
 40
1
 40
1
 40
1
 40
1
 10
238.020264
 20
69.498294
 30
0.0
 10
237.467979
 20
68.541708
 30
0.0
 10
237.795729
 20
67.318527
 30
0.0
 10
238.752315
 20
66.766242
 30
0.0
  0
LWPOLYLINE
  5
198
100
AcDbEntity
  8
Visible
 62
7
100
AcDbPolyline
 90
2
 70
0
 10
273.393322
 20
46.766250
 30
0.0
 10
238.752315
 20
66.766242
 30
0.0
  0
SPLINE
  5
199
100
AcDbEntity
  8
Visible
 62
7
100
AcDbSpline
 70
8
 71
3
 72
8
 73
4
 74
0
 40
0
 40
0
 40
0
 40
0
 40
1
 40
1
 40
1
 40
1
 10
273.393322
 20
46.766250
 30
0.0
 10
274.349856
 20
46.214489
 30
0.0
 10
275.572562
 20
46.542364
 30
0.0
 10
276.124697
 20
47.498683
 30
0.0
  0
SPLINE
  5
19a
100
AcDbEntity
  8
Visible
 62
7
100
AcDbSpline
 70
8
 71
3
 72
8
 73
4
 74
0
 40
0
 40
0
 40
0
 40
0
 40
1
 40
1
 40
1
 40
1
 10
276.124697
 20
47.498683
 30
0.0
 10
276.676833
 20
48.455001
 30
0.0
 10
276.349436
 20
49.677835
 30
0.0
 10
275.393334
 20
50.230344
 30
0.0
  0
LWPOLYLINE
  5
19b
100
AcDbEntity
  8
Visible
 62
7
100
AcDbPolyline
 90
2
 70
0
 10
240.752316
 20
70.230344
 30
0.0
 10
275.393334
 20
50.230344
 30
0.0
  0
SPLINE
  5
19c
100
AcDbEntity
  8
Visible
 62
7
100
AcDbSpline
 70
8
 71
3
 72
8
 73
4
 74
0
 40
0
 40
0
 40
0
 40
0
 40
1
 40
1
 40
1
 40
1
 10
266.233088
 20
114.364320
 30
0.0
 10
265.614286
 20
114.721588
 30
0.0
 10
264.851889
 20
114.721590
 30
0.0
 10
264.233085
 20
114.364325
 30
0.0
  0
SPLINE
  5
19d
100
AcDbEntity
  8
Visible
 62
7
100
AcDbSpline
 70
8
 71
3
 72
8
 73
4
 74
0
 40
0
 40
0
 40
0
 40
0
 40
1
 40
1
 40
1
 40
1
 10
264.233085
 20
114.364325
 30
0.0
 10
263.614281
 20
114.007061
 30
0.0
 10
263.233081
 20
113.346807
 30
0.0
 10
263.233079
 20
112.632274
 30
0.0
  0
SPLINE
  5
19e
100
AcDbEntity
  8
Visible
 62
7
100
AcDbSpline
 70
8
 71
3
 72
8
 73
4
 74
0
 40
0
 40
0
 40
0
 40
0
 40
1
 40
1
 40
1
 40
1
 10
263.233079
 20
112.632274
 30
0.0
 10
263.233077
 20
111.917742
 30
0.0
 10
263.614274
 20
111.257486
 30
0.0
 10
264.233076
 20
110.900218
 30
0.0
  0
LWPOLYLINE
  5
19f
100
AcDbEntity
  8
Visible
 62
7
100
AcDbPolyline
 90
2
 70
0
 10
298.874099
 20
90.900219
 30
0.0
 10
264.233076
 20
110.900218
 30
0.0
  0
SPLINE
  5
1a0
100
AcDbEntity
  8
Visible
 62
7
100
AcDbSpline
 70
8
 71
3
 72
8
 73
4
 74
0
 40
0
 40
0
 40
0
 40
0
 40
1
 40
1
 40
1
 40
1
 10
298.874099
 20
90.900219
 30
0.0
 10
299.830417
 20
90.350810
 30
0.0
 10
301.051000
 20
90.679264
 30
0.0
 10
301.602449
 20
91.634408
 30
0.0
  0
SPLINE
  5
1a1
100
AcDbEntity
  8
Visible
 62
7
100
AcDbSpline
 70
8
 71
3
 72
8
 73
4
 74
0
 40
0
 40
0
 40
0
 40
0
 40
1
 40
1
 40
1
 40
1
 10
301.602449
 20
91.634408
 30
0.0
 10
302.153897
 20
92.589551
 30
0.0
 10
301.828049
 20
93.810832
 30
0.0
 10
300.874084
 20
94.364318
 30
0.0
  0
LWPOLYLINE
  5
1a2
100
AcDbEntity
  8
Visible
 62
7
100
AcDbPolyline
 90
2
 70
0
 10
266.233088
 20
114.364318
 30
0.0
 10
300.874084
 20
94.364318
 30
0.0
  0
SPLINE
  5
1a3
100
AcDbEntity
  8
Visible
 62
7
100
AcDbSpline
 70
8
 71
3
 72
8
 73
4
 74
0
 40
0
 40
0
 40
0
 40
0
 40
1
 40
1
 40
1
 40
1
 10
119.508761
 20
110.034192
 30
0.0
 10
120.127563
 20
110.391458
 30
0.0
 10
120.508761
 20
111.051712
 30
0.0
 10
120.508760
 20
111.766244
 30
0.0
  0
SPLINE
  5
1a4
100
AcDbEntity
  8
Visible
 62
7
100
AcDbSpline
 70
8
 71
3
 72
8
 73
4
 74
0
 40
0
 40
0
 40
0
 40
0
 40
1
 40
1
 40
1
 40
1
 10
120.508760
 20
111.766244
 30
0.0
 10
120.508760
 20
112.480775
 30
0.0
 10
120.127562
 20
113.141029
 30
0.0
 10
119.508760
 20
113.498295
 30
0.0
  0
SPLINE
  5
1a5
100
AcDbEntity
  8
Visible
 62
7
100
AcDbSpline
 70
8
 71
3
 72
8
 73
4
 74
0
 40
0
 40
0
 40
0
 40
0
 40
1
 40
1
 40
1
 40
1
 10
119.508760
 20
113.498295
 30
0.0
 10
118.889957
 20
113.855560
 30
0.0
 10
118.127562
 20
113.855560
 30
0.0
 10
117.508759
 20
113.498294
 30
0.0
  0
LWPOLYLINE
  5
1a6
100
AcDbEntity
  8
Visible
 62
7
100
AcDbPolyline
 90
2
 70
0
 10
82.867744
 20
93.498295
 30
0.0
 10
117.508759
 20
113.498294
 30
0.0
  0
SPLINE
  5
1a7
100
AcDbEntity
  8
Visible
 62
7
100
AcDbSpline
 70
8
 71
3
 72
8
 73
4
 74
0
 40
0
 40
0
 40
0
 40
0
 40
1
 40
1
 40
1
 40
1
 10
82.867744
 20
93.498292
 30
0.0
 10
81.912532
 20
92.945376
 30
0.0
 10
81.585780
 20
91.723189
 30
0.0
 10
82.137628
 20
90.767359
 30
0.0
  0
SPLINE
  5
1a8
100
AcDbEntity
  8
Visible
 62
7
100
AcDbSpline
 70
8
 71
3
 72
8
 73
4
 74
0
 40
0
 40
0
 40
0
 40
0
 40
1
 40
1
 40
1
 40
1
 10
82.137628
 20
90.767359
 30
0.0
 10
82.689477
 20
89.811530
 30
0.0
 10
83.911298
 20
89.483412
 30
0.0
 10
84.867743
 20
90.034192
 30
0.0
  0
SPLINE
  5
1a9
100
AcDbEntity
  8
Visible
 62
7
100
AcDbSpline
 70
8
 71
3
 72
8
 73
4
 74
0
 40
0
 40
0
 40
0
 40
0
 40
1
 40
1
 40
1
 40
1
 10
141.659394
 20
35.132256
 30
0.0
 10
141.659394
 20
35.846787
 30
0.0
 10
141.278196
 20
36.507042
 30
0.0
 10
140.659394
 20
36.864307
 30
0.0
  0
SPLINE
  5
1aa
100
AcDbEntity
  8
Visible
 62
7
100
AcDbSpline
 70
8
 71
3
 72
8
 73
4
 74
0
 40
0
 40
0
 40
0
 40
0
 40
1
 40
1
 40
1
 40
1
 10
140.659394
 20
36.864307
 30
0.0
 10
140.040592
 20
37.221573
 30
0.0
 10
139.278196
 20
37.221573
 30
0.0
 10
138.659394
 20
36.864307
 30
0.0
  0
SPLINE
  5
1ab
100
AcDbEntity
  8
Visible
 62
7
100
AcDbSpline
 70
8
 71
3
 72
8
 73
4
 74
0
 40
0
 40
0
 40
0
 40
0
 40
1
 40
1
 40
1
 40
1
 10
138.659394
 20
36.864307
 30
0.0
 10
138.040592
 20
36.507042
 30
0.0
 10
137.659394
 20
35.846787
 30
0.0
 10
137.659394
 20
35.132256
 30
0.0
  0
SPLINE
  5
1ac
100
AcDbEntity
  8
Visible
 62
7
100
AcDbSpline
 70
8
 71
3
 72
8
 73
4
 74
0
 40
0
 40
0
 40
0
 40
0
 40
1
 40
1
 40
1
 40
1
 10
137.659394
 20
35.132256
 30
0.0
 10
137.659394
 20
34.417725
 30
0.0
 10
138.040592
 20
33.757471
 30
0.0
 10
138.659394
 20
33.400206
 30
0.0
  0
SPLINE
  5
1ad
100
AcDbEntity
  8
Visible
 62
7
100
AcDbSpline
 70
8
 71
3
 72
8
 73
4
 74
0
 40
0
 40
0
 40
0
 40
0
 40
1
 40
1
 40
1
 40
1
 10
138.659394
 20
33.400206
 30
0.0
 10
139.278196
 20
33.042940
 30
0.0
 10
140.040592
 20
33.042940
 30
0.0
 10
140.659394
 20
33.400206
 30
0.0
  0
SPLINE
  5
1ae
100
AcDbEntity
  8
Visible
 62
7
100
AcDbSpline
 70
8
 71
3
 72
8
 73
4
 74
0
 40
0
 40
0
 40
0
 40
0
 40
1
 40
1
 40
1
 40
1
 10
140.659394
 20
33.400206
 30
0.0
 10
141.278196
 20
33.757471
 30
0.0
 10
141.659394
 20
34.417725
 30
0.0
 10
141.659394
 20
35.132256
 30
0.0
  0
LWPOLYLINE
  5
1af
100
AcDbEntity
  8
Visible
 62
7
100
AcDbPolyline
 90
2
 70
0
 10
119.508761
 20
110.034192
 30
0.0
 10
84.867743
 20
90.034192
 30
0.0
  0
SPLINE
  5
1b0
100
AcDbEntity
  8
Visible
 62
7
100
AcDbSpline
 70
8
 71
3
 72
8
 73
4
 74
0
 40
0
 40
0
 40
0
 40
0
 40
1
 40
1
 40
1
 40
1
 10
54.389558
 20
30.890589
 30
0.0
 10
54.389558
 20
31.605120
 30
0.0
 10
54.008360
 20
32.265374
 30
0.0
 10
53.389558
 20
32.622639
 30
0.0
  0
SPLINE
  5
1b1
100
AcDbEntity
  8
Visible
 62
7
100
AcDbSpline
 70
8
 71
3
 72
8
 73
4
 74
0
 40
0
 40
0
 40
0
 40
0
 40
1
 40
1
 40
1
 40
1
 10
53.389558
 20
32.622639
 30
0.0
 10
52.770756
 20
32.979905
 30
0.0
 10
52.008360
 20
32.979905
 30
0.0
 10
51.389558
 20
32.622639
 30
0.0
  0
SPLINE
  5
1b2
100
AcDbEntity
  8
Visible
 62
7
100
AcDbSpline
 70
8
 71
3
 72
8
 73
4
 74
0
 40
0
 40
0
 40
0
 40
0
 40
1
 40
1
 40
1
 40
1
 10
51.389558
 20
32.622639
 30
0.0
 10
50.770756
 20
32.265374
 30
0.0
 10
50.389558
 20
31.605120
 30
0.0
 10
50.389558
 20
30.890589
 30
0.0
  0
SPLINE
  5
1b3
100
AcDbEntity
  8
Visible
 62
7
100
AcDbSpline
 70
8
 71
3
 72
8
 73
4
 74
0
 40
0
 40
0
 40
0
 40
0
 40
1
 40
1
 40
1
 40
1
 10
50.389558
 20
30.890589
 30
0.0
 10
50.389558
 20
30.176057
 30
0.0
 10
50.770756
 20
29.515803
 30
0.0
 10
51.389558
 20
29.158538
 30
0.0
  0
SPLINE
  5
1b4
100
AcDbEntity
  8
Visible
 62
7
100
AcDbSpline
 70
8
 71
3
 72
8
 73
4
 74
0
 40
0
 40
0
 40
0
 40
0
 40
1
 40
1
 40
1
 40
1
 10
51.389558
 20
29.158538
 30
0.0
 10
52.008360
 20
28.801272
 30
0.0
 10
52.770756
 20
28.801272
 30
0.0
 10
53.389558
 20
29.158538
 30
0.0
  0
SPLINE
  5
1b5
100
AcDbEntity
  8
Visible
 62
7
100
AcDbSpline
 70
8
 71
3
 72
8
 73
4
 74
0
 40
0
 40
0
 40
0
 40
0
 40
1
 40
1
 40
1
 40
1
 10
53.389558
 20
29.158538
 30
0.0
 10
54.008360
 20
29.515803
 30
0.0
 10
54.389558
 20
30.176057
 30
0.0
 10
54.389558
 20
30.890589
 30
0.0
  0
LWPOLYLINE
  5
1b6
100
AcDbEntity
  8
Visible
 62
7
100
AcDbPolyline
 90
1
 70
1
 10
141.659394
 20
35.132256
 30
0.0
  0
SPLINE
  5
1b7
100
AcDbEntity
  8
Visible
 62
7
100
AcDbSpline
 70
8
 71
3
 72
8
 73
4
 74
0
 40
0
 40
0
 40
0
 40
0
 40
1
 40
1
 40
1
 40
1
 10
196.420918
 20
125.132269
 30
0.0
 10
196.421724
 20
126.847681
 30
0.0
 10
195.507025
 20
128.433131
 30
0.0
 10
194.021570
 20
129.291070
 30
0.0
  0
SPLINE
  5
1b8
100
AcDbEntity
  8
Visible
 62
7
100
AcDbSpline
 70
8
 71
3
 72
8
 73
4
 74
0
 40
0
 40
0
 40
0
 40
0
 40
1
 40
1
 40
1
 40
1
 10
194.021570
 20
129.291070
 30
0.0
 10
192.536114
 20
130.149008
 30
0.0
 10
190.705724
 20
130.149008
 30
0.0
 10
189.220268
 20
129.291070
 30
0.0
  0
SPLINE
  5
1b9
100
AcDbEntity
  8
Visible
 62
7
100
AcDbSpline
 70
8
 71
3
 72
8
 73
4
 74
0
 40
0
 40
0
 40
0
 40
0
 40
1
 40
1
 40
1
 40
1
 10
189.220268
 20
129.291070
 30
0.0
 10
187.734813
 20
128.433131
 30
0.0
 10
186.820114
 20
126.847681
 30
0.0
 10
186.820920
 20
125.132269
 30
0.0
  0
SPLINE
  5
1ba
100
AcDbEntity
  8
Visible
 62
7
100
AcDbSpline
 70
8
 71
3
 72
8
 73
4
 74
0
 40
0
 40
0
 40
0
 40
0
 40
1
 40
1
 40
1
 40
1
 10
186.820920
 20
125.132269
 30
0.0
 10
186.820114
 20
123.416858
 30
0.0
 10
187.734813
 20
121.831408
 30
0.0
 10
189.220268
 20
120.973469
 30
0.0
  0
SPLINE
  5
1bb
100
AcDbEntity
  8
Visible
 62
7
100
AcDbSpline
 70
8
 71
3
 72
8
 73
4
 74
0
 40
0
 40
0
 40
0
 40
0
 40
1
 40
1
 40
1
 40
1
 10
189.220268
 20
120.973469
 30
0.0
 10
190.705724
 20
120.115531
 30
0.0
 10
192.536114
 20
120.115531
 30
0.0
 10
194.021570
 20
120.973469
 30
0.0
  0
SPLINE
  5
1bc
100
AcDbEntity
  8
Visible
 62
7
100
AcDbSpline
 70
8
 71
3
 72
8
 73
4
 74
0
 40
0
 40
0
 40
0
 40
0
 40
1
 40
1
 40
1
 40
1
 10
194.021570
 20
120.973469
 30
0.0
 10
195.507025
 20
121.831408
 30
0.0
 10
196.421724
 20
123.416858
 30
0.0
 10
196.420918
 20
125.132269
 30
0.0
  0
LWPOLYLINE
  5
1bd
100
AcDbEntity
  8
Visible
 62
7
100
AcDbPolyline
 90
1
 70
1
 10
54.389558
 20
30.890589
 30
0.0
  0
SPLINE
  5
1be
100
AcDbEntity
  8
Visible
 62
7
100
AcDbSpline
 70
8
 71
3
 72
8
 73
4
 74
0
 40
0
 40
0
 40
0
 40
0
 40
1
 40
1
 40
1
 40
1
 10
245.582444
 20
215.132269
 30
0.0
 10
245.582444
 20
215.846801
 30
0.0
 10
245.201246
 20
216.507055
 30
0.0
 10
244.582444
 20
216.864320
 30
0.0
  0
SPLINE
  5
1bf
100
AcDbEntity
  8
Visible
 62
7
100
AcDbSpline
 70
8
 71
3
 72
8
 73
4
 74
0
 40
0
 40
0
 40
0
 40
0
 40
1
 40
1
 40
1
 40
1
 10
244.582444
 20
216.864320
 30
0.0
 10
243.963642
 20
217.221586
 30
0.0
 10
243.201246
 20
217.221586
 30
0.0
 10
242.582444
 20
216.864320
 30
0.0
  0
SPLINE
  5
1c0
100
AcDbEntity
  8
Visible
 62
7
100
AcDbSpline
 70
8
 71
3
 72
8
 73
4
 74
0
 40
0
 40
0
 40
0
 40
0
 40
1
 40
1
 40
1
 40
1
 10
242.582444
 20
216.864320
 30
0.0
 10
241.963642
 20
216.507055
 30
0.0
 10
241.582444
 20
215.846801
 30
0.0
 10
241.582444
 20
215.132269
 30
0.0
  0
SPLINE
  5
1c1
100
AcDbEntity
  8
Visible
 62
7
100
AcDbSpline
 70
8
 71
3
 72
8
 73
4
 74
0
 40
0
 40
0
 40
0
 40
0
 40
1
 40
1
 40
1
 40
1
 10
241.582444
 20
215.132269
 30
0.0
 10
241.582444
 20
214.417738
 30
0.0
 10
241.963642
 20
213.757484
 30
0.0
 10
242.582444
 20
213.400218
 30
0.0
  0
SPLINE
  5
1c2
100
AcDbEntity
  8
Visible
 62
7
100
AcDbSpline
 70
8
 71
3
 72
8
 73
4
 74
0
 40
0
 40
0
 40
0
 40
0
 40
1
 40
1
 40
1
 40
1
 10
242.582444
 20
213.400218
 30
0.0
 10
243.201246
 20
213.042953
 30
0.0
 10
243.963642
 20
213.042953
 30
0.0
 10
244.582444
 20
213.400218
 30
0.0
  0
SPLINE
  5
1c3
100
AcDbEntity
  8
Visible
 62
7
100
AcDbSpline
 70
8
 71
3
 72
8
 73
4
 74
0
 40
0
 40
0
 40
0
 40
0
 40
1
 40
1
 40
1
 40
1
 10
244.582444
 20
213.400218
 30
0.0
 10
245.201246
 20
213.757484
 30
0.0
 10
245.582444
 20
214.417738
 30
0.0
 10
245.582444
 20
215.132269
 30
0.0
  0
LWPOLYLINE
  5
1c4
100
AcDbEntity
  8
Visible
 62
7
100
AcDbPolyline
 90
1
 70
1
 10
196.420918
 20
125.132269
 30
0.0
  0
SPLINE
  5
1c5
100
AcDbEntity
  8
Visible
 62
7
100
AcDbSpline
 70
8
 71
3
 72
8
 73
4
 74
0
 40
0
 40
0
 40
0
 40
0
 40
1
 40
1
 40
1
 40
1
 10
21.604950
 20
39.675205
 30
0.0
 10
21.604950
 20
40.389736
 30
0.0
 10
21.223752
 20
41.049991
 30
0.0
 10
20.604950
 20
41.407256
 30
0.0
  0
SPLINE
  5
1c6
100
AcDbEntity
  8
Visible
 62
7
100
AcDbSpline
 70
8
 71
3
 72
8
 73
4
 74
0
 40
0
 40
0
 40
0
 40
0
 40
1
 40
1
 40
1
 40
1
 10
20.604950
 20
41.407256
 30
0.0
 10
19.986147
 20
41.764522
 30
0.0
 10
19.223752
 20
41.764522
 30
0.0
 10
18.604949
 20
41.407256
 30
0.0
  0
SPLINE
  5
1c7
100
AcDbEntity
  8
Visible
 62
7
100
AcDbSpline
 70
8
 71
3
 72
8
 73
4
 74
0
 40
0
 40
0
 40
0
 40
0
 40
1
 40
1
 40
1
 40
1
 10
18.604949
 20
41.407256
 30
0.0
 10
17.986147
 20
41.049991
 30
0.0
 10
17.604949
 20
40.389736
 30
0.0
 10
17.604949
 20
39.675205
 30
0.0
  0
SPLINE
  5
1c8
100
AcDbEntity
  8
Visible
 62
7
100
AcDbSpline
 70
8
 71
3
 72
8
 73
4
 74
0
 40
0
 40
0
 40
0
 40
0
 40
1
 40
1
 40
1
 40
1
 10
17.604949
 20
39.675205
 30
0.0
 10
17.604949
 20
38.960674
 30
0.0
 10
17.986147
 20
38.300420
 30
0.0
 10
18.604949
 20
37.943154
 30
0.0
  0
SPLINE
  5
1c9
100
AcDbEntity
  8
Visible
 62
7
100
AcDbSpline
 70
8
 71
3
 72
8
 73
4
 74
0
 40
0
 40
0
 40
0
 40
0
 40
1
 40
1
 40
1
 40
1
 10
18.604949
 20
37.943154
 30
0.0
 10
19.223752
 20
37.585888
 30
0.0
 10
19.986147
 20
37.585888
 30
0.0
 10
20.604950
 20
37.943154
 30
0.0
  0
SPLINE
  5
1ca
100
AcDbEntity
  8
Visible
 62
7
100
AcDbSpline
 70
8
 71
3
 72
8
 73
4
 74
0
 40
0
 40
0
 40
0
 40
0
 40
1
 40
1
 40
1
 40
1
 10
20.604950
 20
37.943154
 30
0.0
 10
21.223752
 20
38.300420
 30
0.0
 10
21.604950
 20
38.960674
 30
0.0
 10
21.604950
 20
39.675205
 30
0.0
  0
LWPOLYLINE
  5
1cb
100
AcDbEntity
  8
Visible
 62
7
100
AcDbPolyline
 90
1
 70
1
 10
245.582444
 20
215.132269
 30
0.0
  0
LWPOLYLINE
  5
1cc
100
AcDbEntity
  8
Visible
 62
7
100
AcDbPolyline
 90
1
 70
1
 10
21.604950
 20
39.675205
 30
0.0
  0
SPLINE
  5
1cd
100
AcDbEntity
  8
Visible
 62
7
100
AcDbSpline
 70
8
 71
3
 72
8
 73
4
 74
0
 40
0
 40
0
 40
0
 40
0
 40
1
 40
1
 40
1
 40
1
 10
189.620918
 20
195.132270
 30
0.0
 10
189.620918
 20
194.417739
 30
0.0
 10
190.002115
 20
193.757485
 30
0.0
 10
190.620918
 20
193.400219
 30
0.0
  0
SPLINE
  5
1ce
100
AcDbEntity
  8
Visible
 62
7
100
AcDbSpline
 70
8
 71
3
 72
8
 73
4
 74
0
 40
0
 40
0
 40
0
 40
0
 40
1
 40
1
 40
1
 40
1
 10
190.620918
 20
193.400219
 30
0.0
 10
191.239720
 20
193.042953
 30
0.0
 10
192.002115
 20
193.042953
 30
0.0
 10
192.620918
 20
193.400219
 30
0.0
  0
SPLINE
  5
1cf
100
AcDbEntity
  8
Visible
 62
7
100
AcDbSpline
 70
8
 71
3
 72
8
 73
4
 74
0
 40
0
 40
0
 40
0
 40
0
 40
1
 40
1
 40
1
 40
1
 10
192.620918
 20
193.400219
 30
0.0
 10
193.239720
 20
193.757485
 30
0.0
 10
193.620918
 20
194.417739
 30
0.0
 10
193.620918
 20
195.132270
 30
0.0
  0
LWPOLYLINE
  5
1d0
100
AcDbEntity
  8
Visible
 62
7
100
AcDbPolyline
 90
2
 70
0
 10
193.620918
 20
235.132269
 30
0.0
 10
193.620918
 20
195.132270
 30
0.0
  0
SPLINE
  5
1d1
100
AcDbEntity
  8
Visible
 62
7
100
AcDbSpline
 70
8
 71
3
 72
8
 73
4
 74
0
 40
0
 40
0
 40
0
 40
0
 40
1
 40
1
 40
1
 40
1
 10
193.620918
 20
235.132269
 30
0.0
 10
193.620918
 20
235.846800
 30
0.0
 10
193.239720
 20
236.507054
 30
0.0
 10
192.620918
 20
236.864320
 30
0.0
  0
SPLINE
  5
1d2
100
AcDbEntity
  8
Visible
 62
7
100
AcDbSpline
 70
8
 71
3
 72
8
 73
4
 74
0
 40
0
 40
0
 40
0
 40
0
 40
1
 40
1
 40
1
 40
1
 10
192.620918
 20
236.864320
 30
0.0
 10
192.002115
 20
237.221585
 30
0.0
 10
191.239720
 20
237.221585
 30
0.0
 10
190.620918
 20
236.864320
 30
0.0
  0
SPLINE
  5
1d3
100
AcDbEntity
  8
Visible
 62
7
100
AcDbSpline
 70
8
 71
3
 72
8
 73
4
 74
0
 40
0
 40
0
 40
0
 40
0
 40
1
 40
1
 40
1
 40
1
 10
190.620918
 20
236.864320
 30
0.0
 10
190.002115
 20
236.507054
 30
0.0
 10
189.620918
 20
235.846800
 30
0.0
 10
189.620918
 20
235.132269
 30
0.0
  0
LWPOLYLINE
  5
1d4
100
AcDbEntity
  8
Visible
 62
7
100
AcDbPolyline
 90
2
 70
0
 10
189.620918
 20
195.132270
 30
0.0
 10
189.620918
 20
235.132269
 30
0.0
  0
SPLINE
  5
1d5
100
AcDbEntity
  8
Visible
 62
7
100
AcDbSpline
 70
8
 71
3
 72
8
 73
4
 74
0
 40
0
 40
0
 40
0
 40
0
 40
1
 40
1
 40
1
 40
1
 10
144.989522
 20
65.900218
 30
0.0
 10
145.608324
 20
66.257484
 30
0.0
 10
145.989522
 20
66.917738
 30
0.0
 10
145.989522
 20
67.632270
 30
0.0
  0
SPLINE
  5
1d6
100
AcDbEntity
  8
Visible
 62
7
100
AcDbSpline
 70
8
 71
3
 72
8
 73
4
 74
0
 40
0
 40
0
 40
0
 40
0
 40
1
 40
1
 40
1
 40
1
 10
145.989522
 20
67.632270
 30
0.0
 10
145.989522
 20
68.346801
 30
0.0
 10
145.608324
 20
69.007055
 30
0.0
 10
144.989521
 20
69.364321
 30
0.0
  0
SPLINE
  5
1d7
100
AcDbEntity
  8
Visible
 62
7
100
AcDbSpline
 70
8
 71
3
 72
8
 73
4
 74
0
 40
0
 40
0
 40
0
 40
0
 40
1
 40
1
 40
1
 40
1
 10
144.989521
 20
69.364321
 30
0.0
 10
144.370719
 20
69.721586
 30
0.0
 10
143.608323
 20
69.721586
 30
0.0
 10
142.989521
 20
69.364321
 30
0.0
  0
LWPOLYLINE
  5
1d8
100
AcDbEntity
  8
Visible
 62
7
100
AcDbPolyline
 90
2
 70
0
 10
108.348506
 20
49.364318
 30
0.0
 10
142.989521
 20
69.364318
 30
0.0
  0
SPLINE
  5
1d9
100
AcDbEntity
  8
Visible
 62
7
100
AcDbSpline
 70
8
 71
3
 72
8
 73
4
 74
0
 40
0
 40
0
 40
0
 40
0
 40
1
 40
1
 40
1
 40
1
 10
108.348506
 20
49.364318
 30
0.0
 10
107.392314
 20
48.811852
 30
0.0
 10
107.064850
 20
47.588957
 30
0.0
 10
107.617009
 20
46.632588
 30
0.0
  0
SPLINE
  5
1da
100
AcDbEntity
  8
Visible
 62
7
100
AcDbSpline
 70
8
 71
3
 72
8
 73
4
 74
0
 40
0
 40
0
 40
0
 40
0
 40
1
 40
1
 40
1
 40
1
 10
107.617009
 20
46.632588
 30
0.0
 10
108.169168
 20
45.676220
 30
0.0
 10
109.391959
 20
45.348363
 30
0.0
 10
110.348505
 20
45.900216
 30
0.0
  0
LWPOLYLINE
  5
1db
100
AcDbEntity
  8
Visible
 62
7
100
AcDbPolyline
 90
2
 70
0
 10
144.989522
 20
65.900218
 30
0.0
 10
110.348505
 20
45.900216
 30
0.0
  0
SPLINE
  5
1dc
100
AcDbEntity
  8
Visible
 62
7
100
AcDbSpline
 70
8
 71
3
 72
8
 73
4
 74
0
 40
0
 40
0
 40
0
 40
0
 40
1
 40
1
 40
1
 40
1
 10
197.620918
 20
255.981634
 30
0.0
 10
199.553382
 20
255.982386
 30
0.0
 10
201.119556
 20
257.549169
 30
0.0
 10
201.119556
 20
259.481634
 30
0.0
  0
SPLINE
  5
1dd
100
AcDbEntity
  8
Visible
 62
7
100
AcDbSpline
 70
8
 71
3
 72
8
 73
4
 74
0
 40
0
 40
0
 40
0
 40
0
 40
1
 40
1
 40
1
 40
1
 10
201.119556
 20
259.481634
 30
0.0
 10
201.119556
 20
261.414099
 30
0.0
 10
199.553382
 20
262.980882
 30
0.0
 10
197.620918
 20
262.981633
 30
0.0
  0
LWPOLYLINE
  5
1de
100
AcDbEntity
  8
Visible
 62
7
100
AcDbPolyline
 90
2
 70
0
 10
185.620918
 20
262.981633
 30
0.0
 10
197.620918
 20
262.981633
 30
0.0
  0
SPLINE
  5
1df
100
AcDbEntity
  8
Visible
 62
7
100
AcDbSpline
 70
8
 71
3
 72
8
 73
4
 74
0
 40
0
 40
0
 40
0
 40
0
 40
1
 40
1
 40
1
 40
1
 10
185.620918
 20
262.981633
 30
0.0
 10
183.688673
 20
262.980571
 30
0.0
 10
182.122842
 20
261.413879
 30
0.0
 10
182.122842
 20
259.481634
 30
0.0
  0
SPLINE
  5
1e0
100
AcDbEntity
  8
Visible
 62
7
100
AcDbSpline
 70
8
 71
3
 72
8
 73
4
 74
0
 40
0
 40
0
 40
0
 40
0
 40
1
 40
1
 40
1
 40
1
 10
182.122842
 20
259.481634
 30
0.0
 10
182.122842
 20
257.549389
 30
0.0
 10
183.688673
 20
255.982697
 30
0.0
 10
185.620918
 20
255.981634
 30
0.0
  0
SPLINE
  5
1e1
100
AcDbEntity
  8
Visible
 62
7
100
AcDbSpline
 70
8
 71
3
 72
8
 73
4
 74
0
 40
0
 40
0
 40
0
 40
0
 40
1
 40
1
 40
1
 40
1
 10
271.563199
 20
170.132269
 30
0.0
 10
271.564021
 20
170.847348
 30
0.0
 10
271.183004
 20
171.508460
 30
0.0
 10
270.563864
 20
171.866237
 30
0.0
  0
SPLINE
  5
1e2
100
AcDbEntity
  8
Visible
 62
7
100
AcDbSpline
 70
8
 71
3
 72
8
 73
4
 74
0
 40
0
 40
0
 40
0
 40
0
 40
1
 40
1
 40
1
 40
1
 10
270.563864
 20
171.866237
 30
0.0
 10
269.944725
 20
172.224014
 30
0.0
 10
269.181676
 20
172.224014
 30
0.0
 10
268.562536
 20
171.866237
 30
0.0
  0
SPLINE
  5
1e3
100
AcDbEntity
  8
Visible
 62
7
100
AcDbSpline
 70
8
 71
3
 72
8
 73
4
 74
0
 40
0
 40
0
 40
0
 40
0
 40
1
 40
1
 40
1
 40
1
 10
268.562536
 20
171.866237
 30
0.0
 10
267.943397
 20
171.508460
 30
0.0
 10
267.562379
 20
170.847348
 30
0.0
 10
267.563202
 20
170.132269
 30
0.0
  0
SPLINE
  5
1e4
100
AcDbEntity
  8
Visible
 62
7
100
AcDbSpline
 70
8
 71
3
 72
8
 73
4
 74
0
 40
0
 40
0
 40
0
 40
0
 40
1
 40
1
 40
1
 40
1
 10
267.563202
 20
170.132269
 30
0.0
 10
267.562379
 20
169.417191
 30
0.0
 10
267.943397
 20
168.756079
 30
0.0
 10
268.562536
 20
168.398302
 30
0.0
  0
SPLINE
  5
1e5
100
AcDbEntity
  8
Visible
 62
7
100
AcDbSpline
 70
8
 71
3
 72
8
 73
4
 74
0
 40
0
 40
0
 40
0
 40
0
 40
1
 40
1
 40
1
 40
1
 10
268.562536
 20
168.398302
 30
0.0
 10
269.181676
 20
168.040525
 30
0.0
 10
269.944725
 20
168.040525
 30
0.0
 10
270.563864
 20
168.398302
 30
0.0
  0
SPLINE
  5
1e6
100
AcDbEntity
  8
Visible
 62
7
100
AcDbSpline
 70
8
 71
3
 72
8
 73
4
 74
0
 40
0
 40
0
 40
0
 40
0
 40
1
 40
1
 40
1
 40
1
 10
270.563864
 20
168.398302
 30
0.0
 10
271.183004
 20
168.756079
 30
0.0
 10
271.564021
 20
169.417191
 30
0.0
 10
271.563199
 20
170.132269
 30
0.0
  0
LWPOLYLINE
  5
1e7
100
AcDbEntity
  8
Visible
 62
7
100
AcDbPolyline
 90
2
 70
0
 10
197.620918
 20
255.981634
 30
0.0
 10
185.620918
 20
255.981634
 30
0.0
  0
LWPOLYLINE
  5
1e8
100
AcDbEntity
  8
Visible
 62
7
100
AcDbPolyline
 90
1
 70
1
 10
271.563199
 20
170.132269
 30
0.0
  0
SPLINE
  5
1e9
100
AcDbEntity
  8
Visible
 62
7
100
AcDbSpline
 70
8
 71
3
 72
8
 73
4
 74
0
 40
0
 40
0
 40
0
 40
0
 40
1
 40
1
 40
1
 40
1
 10
253.242697
 20
91.864318
 30
0.0
 10
252.286201
 20
92.415644
 30
0.0
 10
251.063888
 20
92.087660
 30
0.0
 10
250.511881
 20
91.131556
 30
0.0
  0
SPLINE
  5
1ea
100
AcDbEntity
  8
Visible
 62
7
100
AcDbSpline
 70
8
 71
3
 72
8
 73
4
 74
0
 40
0
 40
0
 40
0
 40
0
 40
1
 40
1
 40
1
 40
1
 10
250.511881
 20
91.131556
 30
0.0
 10
249.959873
 20
90.175453
 30
0.0
 10
250.286987
 20
88.952906
 30
0.0
 10
251.242696
 20
88.400218
 30
0.0
  0
LWPOLYLINE
  5
1eb
100
AcDbEntity
  8
Visible
 62
7
100
AcDbPolyline
 90
2
 70
0
 10
285.883719
 20
68.400219
 30
0.0
 10
251.242696
 20
88.400218
 30
0.0
  0
SPLINE
  5
1ec
100
AcDbEntity
  8
Visible
 62
7
100
AcDbSpline
 70
8
 71
3
 72
8
 73
4
 74
0
 40
0
 40
0
 40
0
 40
0
 40
1
 40
1
 40
1
 40
1
 10
285.883719
 20
68.400219
 30
0.0
 10
286.840037
 20
67.850810
 30
0.0
 10
288.060620
 20
68.179264
 30
0.0
 10
288.612068
 20
69.134408
 30
0.0
  0
SPLINE
  5
1ed
100
AcDbEntity
  8
Visible
 62
7
100
AcDbSpline
 70
8
 71
3
 72
8
 73
4
 74
0
 40
0
 40
0
 40
0
 40
0
 40
1
 40
1
 40
1
 40
1
 10
288.612068
 20
69.134408
 30
0.0
 10
289.163517
 20
70.089551
 30
0.0
 10
288.837669
 20
71.310832
 30
0.0
 10
287.883704
 20
71.864318
 30
0.0
  0
SPLINE
  5
1ee
100
AcDbEntity
  8
Visible
 62
7
100
AcDbSpline
 70
8
 71
3
 72
8
 73
4
 74
0
 40
0
 40
0
 40
0
 40
0
 40
1
 40
1
 40
1
 40
1
 10
193.620918
 20
35.132256
 30
0.0
 10
193.620918
 20
35.846787
 30
0.0
 10
193.239720
 20
36.507042
 30
0.0
 10
192.620918
 20
36.864307
 30
0.0
  0
SPLINE
  5
1ef
100
AcDbEntity
  8
Visible
 62
7
100
AcDbSpline
 70
8
 71
3
 72
8
 73
4
 74
0
 40
0
 40
0
 40
0
 40
0
 40
1
 40
1
 40
1
 40
1
 10
192.620918
 20
36.864307
 30
0.0
 10
192.002115
 20
37.221573
 30
0.0
 10
191.239720
 20
37.221573
 30
0.0
 10
190.620918
 20
36.864307
 30
0.0
  0
SPLINE
  5
1f0
100
AcDbEntity
  8
Visible
 62
7
100
AcDbSpline
 70
8
 71
3
 72
8
 73
4
 74
0
 40
0
 40
0
 40
0
 40
0
 40
1
 40
1
 40
1
 40
1
 10
190.620918
 20
36.864307
 30
0.0
 10
190.002115
 20
36.507042
 30
0.0
 10
189.620918
 20
35.846787
 30
0.0
 10
189.620918
 20
35.132256
 30
0.0
  0
SPLINE
  5
1f1
100
AcDbEntity
  8
Visible
 62
7
100
AcDbSpline
 70
8
 71
3
 72
8
 73
4
 74
0
 40
0
 40
0
 40
0
 40
0
 40
1
 40
1
 40
1
 40
1
 10
189.620918
 20
35.132256
 30
0.0
 10
189.620918
 20
34.417725
 30
0.0
 10
190.002115
 20
33.757471
 30
0.0
 10
190.620918
 20
33.400206
 30
0.0
  0
SPLINE
  5
1f2
100
AcDbEntity
  8
Visible
 62
7
100
AcDbSpline
 70
8
 71
3
 72
8
 73
4
 74
0
 40
0
 40
0
 40
0
 40
0
 40
1
 40
1
 40
1
 40
1
 10
190.620918
 20
33.400206
 30
0.0
 10
191.239720
 20
33.042940
 30
0.0
 10
192.002115
 20
33.042940
 30
0.0
 10
192.620918
 20
33.400206
 30
0.0
  0
SPLINE
  5
1f3
100
AcDbEntity
  8
Visible
 62
7
100
AcDbSpline
 70
8
 71
3
 72
8
 73
4
 74
0
 40
0
 40
0
 40
0
 40
0
 40
1
 40
1
 40
1
 40
1
 10
192.620918
 20
33.400206
 30
0.0
 10
193.239720
 20
33.757471
 30
0.0
 10
193.620918
 20
34.417725
 30
0.0
 10
193.620918
 20
35.132256
 30
0.0
  0
LWPOLYLINE
  5
1f4
100
AcDbEntity
  8
Visible
 62
7
100
AcDbPolyline
 90
2
 70
0
 10
253.242697
 20
91.864318
 30
0.0
 10
287.883704
 20
71.864318
 30
0.0
  0
SPLINE
  5
1f5
100
AcDbEntity
  8
Visible
 62
7
100
AcDbSpline
 70
8
 71
3
 72
8
 73
4
 74
0
 40
0
 40
0
 40
0
 40
0
 40
1
 40
1
 40
1
 40
1
 10
205.620920
 20
316.830997
 30
0.0
 10
205.620920
 20
317.545529
 30
0.0
 10
205.239722
 20
318.205783
 30
0.0
 10
204.620920
 20
318.563048
 30
0.0
  0
SPLINE
  5
1f6
100
AcDbEntity
  8
Visible
 62
7
100
AcDbSpline
 70
8
 71
3
 72
8
 73
4
 74
0
 40
0
 40
0
 40
0
 40
0
 40
1
 40
1
 40
1
 40
1
 10
204.620920
 20
318.563048
 30
0.0
 10
204.002118
 20
318.920314
 30
0.0
 10
203.239722
 20
318.920314
 30
0.0
 10
202.620920
 20
318.563048
 30
0.0
  0
SPLINE
  5
1f7
100
AcDbEntity
  8
Visible
 62
7
100
AcDbSpline
 70
8
 71
3
 72
8
 73
4
 74
0
 40
0
 40
0
 40
0
 40
0
 40
1
 40
1
 40
1
 40
1
 10
202.620920
 20
318.563048
 30
0.0
 10
202.002118
 20
318.205783
 30
0.0
 10
201.620920
 20
317.545529
 30
0.0
 10
201.620920
 20
316.830997
 30
0.0
  0
SPLINE
  5
1f8
100
AcDbEntity
  8
Visible
 62
7
100
AcDbSpline
 70
8
 71
3
 72
8
 73
4
 74
0
 40
0
 40
0
 40
0
 40
0
 40
1
 40
1
 40
1
 40
1
 10
201.620920
 20
316.830997
 30
0.0
 10
201.620920
 20
316.116466
 30
0.0
 10
202.002118
 20
315.456212
 30
0.0
 10
202.620920
 20
315.098946
 30
0.0
  0
SPLINE
  5
1f9
100
AcDbEntity
  8
Visible
 62
7
100
AcDbSpline
 70
8
 71
3
 72
8
 73
4
 74
0
 40
0
 40
0
 40
0
 40
0
 40
1
 40
1
 40
1
 40
1
 10
202.620920
 20
315.098946
 30
0.0
 10
203.239722
 20
314.741681
 30
0.0
 10
204.002118
 20
314.741681
 30
0.0
 10
204.620920
 20
315.098946
 30
0.0
  0
SPLINE
  5
1fa
100
AcDbEntity
  8
Visible
 62
7
100
AcDbSpline
 70
8
 71
3
 72
8
 73
4
 74
0
 40
0
 40
0
 40
0
 40
0
 40
1
 40
1
 40
1
 40
1
 10
204.620920
 20
315.098946
 30
0.0
 10
205.239722
 20
315.456212
 30
0.0
 10
205.620920
 20
316.116466
 30
0.0
 10
205.620920
 20
316.830997
 30
0.0
  0
LWPOLYLINE
  5
1fb
100
AcDbEntity
  8
Visible
 62
7
100
AcDbPolyline
 90
1
 70
1
 10
193.620918
 20
35.132256
 30
0.0
  0
SPLINE
  5
1fc
100
AcDbEntity
  8
Visible
 62
7
100
AcDbSpline
 70
8
 71
3
 72
8
 73
4
 74
0
 40
0
 40
0
 40
0
 40
0
 40
1
 40
1
 40
1
 40
1
 10
205.620920
 20
292.830997
 30
0.0
 10
205.620920
 20
293.545529
 30
0.0
 10
205.239722
 20
294.205783
 30
0.0
 10
204.620920
 20
294.563048
 30
0.0
  0
SPLINE
  5
1fd
100
AcDbEntity
  8
Visible
 62
7
100
AcDbSpline
 70
8
 71
3
 72
8
 73
4
 74
0
 40
0
 40
0
 40
0
 40
0
 40
1
 40
1
 40
1
 40
1
 10
204.620920
 20
294.563048
 30
0.0
 10
204.002118
 20
294.920314
 30
0.0
 10
203.239722
 20
294.920314
 30
0.0
 10
202.620920
 20
294.563048
 30
0.0
  0
SPLINE
  5
1fe
100
AcDbEntity
  8
Visible
 62
7
100
AcDbSpline
 70
8
 71
3
 72
8
 73
4
 74
0
 40
0
 40
0
 40
0
 40
0
 40
1
 40
1
 40
1
 40
1
 10
202.620920
 20
294.563048
 30
0.0
 10
202.002118
 20
294.205783
 30
0.0
 10
201.620920
 20
293.545529
 30
0.0
 10
201.620920
 20
292.830997
 30
0.0
  0
SPLINE
  5
1ff
100
AcDbEntity
  8
Visible
 62
7
100
AcDbSpline
 70
8
 71
3
 72
8
 73
4
 74
0
 40
0
 40
0
 40
0
 40
0
 40
1
 40
1
 40
1
 40
1
 10
201.620920
 20
292.830997
 30
0.0
 10
201.620920
 20
292.116466
 30
0.0
 10
202.002118
 20
291.456212
 30
0.0
 10
202.620920
 20
291.098946
 30
0.0
  0
SPLINE
  5
200
100
AcDbEntity
  8
Visible
 62
7
100
AcDbSpline
 70
8
 71
3
 72
8
 73
4
 74
0
 40
0
 40
0
 40
0
 40
0
 40
1
 40
1
 40
1
 40
1
 10
202.620920
 20
291.098946
 30
0.0
 10
203.239722
 20
290.741681
 30
0.0
 10
204.002118
 20
290.741681
 30
0.0
 10
204.620920
 20
291.098946
 30
0.0
  0
SPLINE
  5
201
100
AcDbEntity
  8
Visible
 62
7
100
AcDbSpline
 70
8
 71
3
 72
8
 73
4
 74
0
 40
0
 40
0
 40
0
 40
0
 40
1
 40
1
 40
1
 40
1
 10
204.620920
 20
291.098946
 30
0.0
 10
205.239722
 20
291.456212
 30
0.0
 10
205.620920
 20
292.116466
 30
0.0
 10
205.620920
 20
292.830997
 30
0.0
  0
LWPOLYLINE
  5
202
100
AcDbEntity
  8
Visible
 62
7
100
AcDbPolyline
 90
1
 70
1
 10
205.620920
 20
316.830997
 30
0.0
  0
LWPOLYLINE
  5
203
100
AcDbEntity
  8
Visible
 62
7
100
AcDbPolyline
 90
1
 70
1
 10
205.620920
 20
292.830997
 30
0.0
  0
SPLINE
  5
204
100
AcDbEntity
  8
Visible
 62
7
100
AcDbSpline
 70
8
 71
3
 72
8
 73
4
 74
0
 40
0
 40
0
 40
0
 40
0
 40
1
 40
1
 40
1
 40
1
 10
215.601681
 20
195.132270
 30
0.0
 10
215.601681
 20
194.417739
 30
0.0
 10
215.982879
 20
193.757485
 30
0.0
 10
216.601681
 20
193.400219
 30
0.0
  0
SPLINE
  5
205
100
AcDbEntity
  8
Visible
 62
7
100
AcDbSpline
 70
8
 71
3
 72
8
 73
4
 74
0
 40
0
 40
0
 40
0
 40
0
 40
1
 40
1
 40
1
 40
1
 10
216.601681
 20
193.400219
 30
0.0
 10
217.220483
 20
193.042953
 30
0.0
 10
217.982879
 20
193.042953
 30
0.0
 10
218.601681
 20
193.400219
 30
0.0
  0
SPLINE
  5
206
100
AcDbEntity
  8
Visible
 62
7
100
AcDbSpline
 70
8
 71
3
 72
8
 73
4
 74
0
 40
0
 40
0
 40
0
 40
0
 40
1
 40
1
 40
1
 40
1
 10
218.601681
 20
193.400219
 30
0.0
 10
219.220483
 20
193.757485
 30
0.0
 10
219.601681
 20
194.417739
 30
0.0
 10
219.601681
 20
195.132270
 30
0.0
  0
LWPOLYLINE
  5
207
100
AcDbEntity
  8
Visible
 62
7
100
AcDbPolyline
 90
2
 70
0
 10
219.601681
 20
235.132269
 30
0.0
 10
219.601681
 20
195.132270
 30
0.0
  0
SPLINE
  5
208
100
AcDbEntity
  8
Visible
 62
7
100
AcDbSpline
 70
8
 71
3
 72
8
 73
4
 74
0
 40
0
 40
0
 40
0
 40
0
 40
1
 40
1
 40
1
 40
1
 10
219.601681
 20
235.132269
 30
0.0
 10
219.601681
 20
235.846800
 30
0.0
 10
219.220483
 20
236.507054
 30
0.0
 10
218.601681
 20
236.864320
 30
0.0
  0
SPLINE
  5
209
100
AcDbEntity
  8
Visible
 62
7
100
AcDbSpline
 70
8
 71
3
 72
8
 73
4
 74
0
 40
0
 40
0
 40
0
 40
0
 40
1
 40
1
 40
1
 40
1
 10
218.601681
 20
236.864320
 30
0.0
 10
217.982879
 20
237.221585
 30
0.0
 10
217.220483
 20
237.221585
 30
0.0
 10
216.601681
 20
236.864320
 30
0.0
  0
SPLINE
  5
20a
100
AcDbEntity
  8
Visible
 62
7
100
AcDbSpline
 70
8
 71
3
 72
8
 73
4
 74
0
 40
0
 40
0
 40
0
 40
0
 40
1
 40
1
 40
1
 40
1
 10
216.601681
 20
236.864320
 30
0.0
 10
215.982879
 20
236.507054
 30
0.0
 10
215.601681
 20
235.846800
 30
0.0
 10
215.601681
 20
235.132269
 30
0.0
  0
LWPOLYLINE
  5
20b
100
AcDbEntity
  8
Visible
 62
7
100
AcDbPolyline
 90
2
 70
0
 10
215.601681
 20
195.132270
 30
0.0
 10
215.601681
 20
235.132269
 30
0.0
  0
SPLINE
  5
20c
100
AcDbEntity
  8
Visible
 62
7
100
AcDbSpline
 70
8
 71
3
 72
8
 73
4
 74
0
 40
0
 40
0
 40
0
 40
0
 40
1
 40
1
 40
1
 40
1
 10
103.760049
 20
198.952776
 30
0.0
 10
104.311901
 20
199.909322
 30
0.0
 10
103.984045
 20
201.132112
 30
0.0
 10
103.027677
 20
201.684272
 30
0.0
  0
SPLINE
  5
20d
100
AcDbEntity
  8
Visible
 62
7
100
AcDbSpline
 70
8
 71
3
 72
8
 73
4
 74
0
 40
0
 40
0
 40
0
 40
0
 40
1
 40
1
 40
1
 40
1
 10
103.027677
 20
201.684272
 30
0.0
 10
102.071308
 20
202.236431
 30
0.0
 10
100.848412
 20
201.908967
 30
0.0
 10
100.295947
 20
200.952775
 30
0.0
  0
LWPOLYLINE
  5
20e
100
AcDbEntity
  8
Visible
 62
7
100
AcDbPolyline
 90
2
 70
0
 10
80.295947
 20
166.311760
 30
0.0
 10
100.295947
 20
200.952775
 30
0.0
  0
SPLINE
  5
20f
100
AcDbEntity
  8
Visible
 62
7
100
AcDbSpline
 70
8
 71
3
 72
8
 73
4
 74
0
 40
0
 40
0
 40
0
 40
0
 40
1
 40
1
 40
1
 40
1
 10
80.295947
 20
166.311760
 30
0.0
 10
79.744094
 20
165.355215
 30
0.0
 10
80.071950
 20
164.132424
 30
0.0
 10
81.028319
 20
163.580265
 30
0.0
  0
SPLINE
  5
210
100
AcDbEntity
  8
Visible
 62
7
100
AcDbSpline
 70
8
 71
3
 72
8
 73
4
 74
0
 40
0
 40
0
 40
0
 40
0
 40
1
 40
1
 40
1
 40
1
 10
81.028319
 20
163.580265
 30
0.0
 10
81.984688
 20
163.028106
 30
0.0
 10
83.207583
 20
163.355570
 30
0.0
 10
83.760049
 20
164.311762
 30
0.0
  0
SPLINE
  5
211
100
AcDbEntity
  8
Visible
 62
7
100
AcDbSpline
 70
8
 71
3
 72
8
 73
4
 74
0
 40
0
 40
0
 40
0
 40
0
 40
1
 40
1
 40
1
 40
1
 10
332.010304
 20
115.434827
 30
0.0
 10
332.011127
 20
116.149906
 30
0.0
 10
331.630109
 20
116.811018
 30
0.0
 10
331.010969
 20
117.168795
 30
0.0
  0
SPLINE
  5
212
100
AcDbEntity
  8
Visible
 62
7
100
AcDbSpline
 70
8
 71
3
 72
8
 73
4
 74
0
 40
0
 40
0
 40
0
 40
0
 40
1
 40
1
 40
1
 40
1
 10
331.010969
 20
117.168795
 30
0.0
 10
330.391830
 20
117.526572
 30
0.0
 10
329.628781
 20
117.526572
 30
0.0
 10
329.009641
 20
117.168795
 30
0.0
  0
SPLINE
  5
213
100
AcDbEntity
  8
Visible
 62
7
100
AcDbSpline
 70
8
 71
3
 72
8
 73
4
 74
0
 40
0
 40
0
 40
0
 40
0
 40
1
 40
1
 40
1
 40
1
 10
329.009641
 20
117.168795
 30
0.0
 10
328.390502
 20
116.811018
 30
0.0
 10
328.009484
 20
116.149906
 30
0.0
 10
328.010307
 20
115.434827
 30
0.0
  0
SPLINE
  5
214
100
AcDbEntity
  8
Visible
 62
7
100
AcDbSpline
 70
8
 71
3
 72
8
 73
4
 74
0
 40
0
 40
0
 40
0
 40
0
 40
1
 40
1
 40
1
 40
1
 10
328.010307
 20
115.434827
 30
0.0
 10
328.009484
 20
114.719749
 30
0.0
 10
328.390502
 20
114.058637
 30
0.0
 10
329.009641
 20
113.700860
 30
0.0
  0
SPLINE
  5
215
100
AcDbEntity
  8
Visible
 62
7
100
AcDbSpline
 70
8
 71
3
 72
8
 73
4
 74
0
 40
0
 40
0
 40
0
 40
0
 40
1
 40
1
 40
1
 40
1
 10
329.009641
 20
113.700860
 30
0.0
 10
329.628781
 20
113.343083
 30
0.0
 10
330.391830
 20
113.343083
 30
0.0
 10
331.010969
 20
113.700860
 30
0.0
  0
SPLINE
  5
216
100
AcDbEntity
  8
Visible
 62
7
100
AcDbSpline
 70
8
 71
3
 72
8
 73
4
 74
0
 40
0
 40
0
 40
0
 40
0
 40
1
 40
1
 40
1
 40
1
 10
331.010969
 20
113.700860
 30
0.0
 10
331.630109
 20
114.058637
 30
0.0
 10
332.011127
 20
114.719749
 30
0.0
 10
332.010304
 20
115.434827
 30
0.0
  0
LWPOLYLINE
  5
217
100
AcDbEntity
  8
Visible
 62
7
100
AcDbPolyline
 90
2
 70
0
 10
103.760049
 20
198.952776
 30
0.0
 10
83.760049
 20
164.311762
 30
0.0
  0
SPLINE
  5
218
100
AcDbEntity
  8
Visible
 62
7
100
AcDbSpline
 70
8
 71
3
 72
8
 73
4
 74
0
 40
0
 40
0
 40
0
 40
0
 40
1
 40
1
 40
1
 40
1
 10
273.987338
 20
10.132280
 30
0.0
 10
273.988200
 20
10.847385
 30
0.0
 10
273.607192
 20
11.508539
 30
0.0
 10
272.988036
 20
11.866341
 30
0.0
  0
SPLINE
  5
219
100
AcDbEntity
  8
Visible
 62
7
100
AcDbSpline
 70
8
 71
3
 72
8
 73
4
 74
0
 40
0
 40
0
 40
0
 40
0
 40
1
 40
1
 40
1
 40
1
 10
272.988036
 20
11.866341
 30
0.0
 10
272.368880
 20
12.224143
 30
0.0
 10
271.605799
 20
12.224143
 30
0.0
 10
270.986643
 20
11.866341
 30
0.0
  0
SPLINE
  5
21a
100
AcDbEntity
  8
Visible
 62
7
100
AcDbSpline
 70
8
 71
3
 72
8
 73
4
 74
0
 40
0
 40
0
 40
0
 40
0
 40
1
 40
1
 40
1
 40
1
 10
270.986643
 20
11.866341
 30
0.0
 10
270.367487
 20
11.508539
 30
0.0
 10
269.986478
 20
10.847385
 30
0.0
 10
269.987340
 20
10.132280
 30
0.0
  0
SPLINE
  5
21b
100
AcDbEntity
  8
Visible
 62
7
100
AcDbSpline
 70
8
 71
3
 72
8
 73
4
 74
0
 40
0
 40
0
 40
0
 40
0
 40
1
 40
1
 40
1
 40
1
 10
269.987340
 20
10.132280
 30
0.0
 10
269.986478
 20
9.417175
 30
0.0
 10
270.367487
 20
8.756021
 30
0.0
 10
270.986643
 20
8.398219
 30
0.0
  0
SPLINE
  5
21c
100
AcDbEntity
  8
Visible
 62
7
100
AcDbSpline
 70
8
 71
3
 72
8
 73
4
 74
0
 40
0
 40
0
 40
0
 40
0
 40
1
 40
1
 40
1
 40
1
 10
270.986643
 20
8.398219
 30
0.0
 10
271.605799
 20
8.040417
 30
0.0
 10
272.368880
 20
8.040417
 30
0.0
 10
272.988036
 20
8.398219
 30
0.0
  0
SPLINE
  5
21d
100
AcDbEntity
  8
Visible
 62
7
100
AcDbSpline
 70
8
 71
3
 72
8
 73
4
 74
0
 40
0
 40
0
 40
0
 40
0
 40
1
 40
1
 40
1
 40
1
 10
272.988036
 20
8.398219
 30
0.0
 10
273.607192
 20
8.756021
 30
0.0
 10
273.988200
 20
9.417175
 30
0.0
 10
273.987338
 20
10.132280
 30
0.0
  0
LWPOLYLINE
  5
21e
100
AcDbEntity
  8
Visible
 62
7
100
AcDbPolyline
 90
1
 70
1
 10
332.010304
 20
115.434827
 30
0.0
  0
SPLINE
  5
21f
100
AcDbEntity
  8
Visible
 62
7
100
AcDbSpline
 70
8
 71
3
 72
8
 73
4
 74
0
 40
0
 40
0
 40
0
 40
0
 40
1
 40
1
 40
1
 40
1
 10
181.620918
 20
292.830997
 30
0.0
 10
181.620918
 20
293.545529
 30
0.0
 10
181.239720
 20
294.205783
 30
0.0
 10
180.620918
 20
294.563048
 30
0.0
  0
SPLINE
  5
220
100
AcDbEntity
  8
Visible
 62
7
100
AcDbSpline
 70
8
 71
3
 72
8
 73
4
 74
0
 40
0
 40
0
 40
0
 40
0
 40
1
 40
1
 40
1
 40
1
 10
180.620918
 20
294.563048
 30
0.0
 10
180.002116
 20
294.920314
 30
0.0
 10
179.239720
 20
294.920314
 30
0.0
 10
178.620918
 20
294.563048
 30
0.0
  0
SPLINE
  5
221
100
AcDbEntity
  8
Visible
 62
7
100
AcDbSpline
 70
8
 71
3
 72
8
 73
4
 74
0
 40
0
 40
0
 40
0
 40
0
 40
1
 40
1
 40
1
 40
1
 10
178.620918
 20
294.563048
 30
0.0
 10
178.002116
 20
294.205783
 30
0.0
 10
177.620918
 20
293.545529
 30
0.0
 10
177.620918
 20
292.830997
 30
0.0
  0
SPLINE
  5
222
100
AcDbEntity
  8
Visible
 62
7
100
AcDbSpline
 70
8
 71
3
 72
8
 73
4
 74
0
 40
0
 40
0
 40
0
 40
0
 40
1
 40
1
 40
1
 40
1
 10
177.620918
 20
292.830997
 30
0.0
 10
177.620918
 20
292.116466
 30
0.0
 10
178.002116
 20
291.456212
 30
0.0
 10
178.620918
 20
291.098947
 30
0.0
  0
SPLINE
  5
223
100
AcDbEntity
  8
Visible
 62
7
100
AcDbSpline
 70
8
 71
3
 72
8
 73
4
 74
0
 40
0
 40
0
 40
0
 40
0
 40
1
 40
1
 40
1
 40
1
 10
178.620918
 20
291.098947
 30
0.0
 10
179.239720
 20
290.741681
 30
0.0
 10
180.002116
 20
290.741681
 30
0.0
 10
180.620918
 20
291.098947
 30
0.0
  0
SPLINE
  5
224
100
AcDbEntity
  8
Visible
 62
7
100
AcDbSpline
 70
8
 71
3
 72
8
 73
4
 74
0
 40
0
 40
0
 40
0
 40
0
 40
1
 40
1
 40
1
 40
1
 10
180.620918
 20
291.098947
 30
0.0
 10
181.239720
 20
291.456212
 30
0.0
 10
181.620918
 20
292.116466
 30
0.0
 10
181.620918
 20
292.830997
 30
0.0
  0
LWPOLYLINE
  5
225
100
AcDbEntity
  8
Visible
 62
7
100
AcDbPolyline
 90
1
 70
1
 10
273.987338
 20
10.132280
 30
0.0
  0
SPLINE
  5
226
100
AcDbEntity
  8
Visible
 62
7
100
AcDbSpline
 70
8
 71
3
 72
8
 73
4
 74
0
 40
0
 40
0
 40
0
 40
0
 40
1
 40
1
 40
1
 40
1
 10
353.636896
 20
18.890597
 30
0.0
 10
353.637759
 20
19.605702
 30
0.0
 10
353.256750
 20
20.266856
 30
0.0
 10
352.637594
 20
20.624658
 30
0.0
  0
SPLINE
  5
227
100
AcDbEntity
  8
Visible
 62
7
100
AcDbSpline
 70
8
 71
3
 72
8
 73
4
 74
0
 40
0
 40
0
 40
0
 40
0
 40
1
 40
1
 40
1
 40
1
 10
352.637594
 20
20.624658
 30
0.0
 10
352.018438
 20
20.982460
 30
0.0
 10
351.255357
 20
20.982460
 30
0.0
 10
350.636201
 20
20.624658
 30
0.0
  0
SPLINE
  5
228
100
AcDbEntity
  8
Visible
 62
7
100
AcDbSpline
 70
8
 71
3
 72
8
 73
4
 74
0
 40
0
 40
0
 40
0
 40
0
 40
1
 40
1
 40
1
 40
1
 10
350.636201
 20
20.624658
 30
0.0
 10
350.017045
 20
20.266856
 30
0.0
 10
349.636036
 20
19.605702
 30
0.0
 10
349.636899
 20
18.890597
 30
0.0
  0
SPLINE
  5
229
100
AcDbEntity
  8
Visible
 62
7
100
AcDbSpline
 70
8
 71
3
 72
8
 73
4
 74
0
 40
0
 40
0
 40
0
 40
0
 40
1
 40
1
 40
1
 40
1
 10
349.636899
 20
18.890597
 30
0.0
 10
349.636036
 20
18.175491
 30
0.0
 10
350.017045
 20
17.514337
 30
0.0
 10
350.636201
 20
17.156535
 30
0.0
  0
SPLINE
  5
22a
100
AcDbEntity
  8
Visible
 62
7
100
AcDbSpline
 70
8
 71
3
 72
8
 73
4
 74
0
 40
0
 40
0
 40
0
 40
0
 40
1
 40
1
 40
1
 40
1
 10
350.636201
 20
17.156535
 30
0.0
 10
351.255357
 20
16.798734
 30
0.0
 10
352.018438
 20
16.798734
 30
0.0
 10
352.637594
 20
17.156535
 30
0.0
  0
SPLINE
  5
22b
100
AcDbEntity
  8
Visible
 62
7
100
AcDbSpline
 70
8
 71
3
 72
8
 73
4
 74
0
 40
0
 40
0
 40
0
 40
0
 40
1
 40
1
 40
1
 40
1
 10
352.637594
 20
17.156535
 30
0.0
 10
353.256750
 20
17.514337
 30
0.0
 10
353.637759
 20
18.175491
 30
0.0
 10
353.636896
 20
18.890597
 30
0.0
  0
LWPOLYLINE
  5
22c
100
AcDbEntity
  8
Visible
 62
7
100
AcDbPolyline
 90
1
 70
1
 10
181.620918
 20
292.830997
 30
0.0
  0
SPLINE
  5
22d
100
AcDbEntity
  8
Visible
 62
7
100
AcDbSpline
 70
8
 71
3
 72
8
 73
4
 74
0
 40
0
 40
0
 40
0
 40
0
 40
1
 40
1
 40
1
 40
1
 10
332.852288
 20
30.890589
 30
0.0
 10
332.853110
 20
31.605667
 30
0.0
 10
332.472092
 20
32.266779
 30
0.0
 10
331.852953
 20
32.624556
 30
0.0
  0
SPLINE
  5
22e
100
AcDbEntity
  8
Visible
 62
7
100
AcDbSpline
 70
8
 71
3
 72
8
 73
4
 74
0
 40
0
 40
0
 40
0
 40
0
 40
1
 40
1
 40
1
 40
1
 10
331.852953
 20
32.624556
 30
0.0
 10
331.233813
 20
32.982333
 30
0.0
 10
330.470764
 20
32.982333
 30
0.0
 10
329.851625
 20
32.624556
 30
0.0
  0
SPLINE
  5
22f
100
AcDbEntity
  8
Visible
 62
7
100
AcDbSpline
 70
8
 71
3
 72
8
 73
4
 74
0
 40
0
 40
0
 40
0
 40
0
 40
1
 40
1
 40
1
 40
1
 10
329.851625
 20
32.624556
 30
0.0
 10
329.232485
 20
32.266779
 30
0.0
 10
328.851468
 20
31.605667
 30
0.0
 10
328.852290
 20
30.890589
 30
0.0
  0
SPLINE
  5
230
100
AcDbEntity
  8
Visible
 62
7
100
AcDbSpline
 70
8
 71
3
 72
8
 73
4
 74
0
 40
0
 40
0
 40
0
 40
0
 40
1
 40
1
 40
1
 40
1
 10
328.852290
 20
30.890589
 30
0.0
 10
328.851468
 20
30.175510
 30
0.0
 10
329.232485
 20
29.514398
 30
0.0
 10
329.851625
 20
29.156621
 30
0.0
  0
SPLINE
  5
231
100
AcDbEntity
  8
Visible
 62
7
100
AcDbSpline
 70
8
 71
3
 72
8
 73
4
 74
0
 40
0
 40
0
 40
0
 40
0
 40
1
 40
1
 40
1
 40
1
 10
329.851625
 20
29.156621
 30
0.0
 10
330.470764
 20
28.798844
 30
0.0
 10
331.233813
 20
28.798844
 30
0.0
 10
331.852953
 20
29.156621
 30
0.0
  0
SPLINE
  5
232
100
AcDbEntity
  8
Visible
 62
7
100
AcDbSpline
 70
8
 71
3
 72
8
 73
4
 74
0
 40
0
 40
0
 40
0
 40
0
 40
1
 40
1
 40
1
 40
1
 10
331.852953
 20
29.156621
 30
0.0
 10
332.472092
 20
29.514398
 30
0.0
 10
332.853110
 20
30.175510
 30
0.0
 10
332.852288
 20
30.890589
 30
0.0
  0
LWPOLYLINE
  5
233
100
AcDbEntity
  8
Visible
 62
7
100
AcDbPolyline
 90
1
 70
1
 10
353.636896
 20
18.890597
 30
0.0
  0
SPLINE
  5
234
100
AcDbEntity
  8
Visible
 62
7
100
AcDbSpline
 70
8
 71
3
 72
8
 73
4
 74
0
 40
0
 40
0
 40
0
 40
0
 40
1
 40
1
 40
1
 40
1
 10
344.852279
 20
51.675208
 30
0.0
 10
344.853102
 20
52.390286
 30
0.0
 10
344.472084
 20
53.051398
 30
0.0
 10
343.852945
 20
53.409175
 30
0.0
  0
SPLINE
  5
235
100
AcDbEntity
  8
Visible
 62
7
100
AcDbSpline
 70
8
 71
3
 72
8
 73
4
 74
0
 40
0
 40
0
 40
0
 40
0
 40
1
 40
1
 40
1
 40
1
 10
343.852945
 20
53.409175
 30
0.0
 10
343.233805
 20
53.766952
 30
0.0
 10
342.470756
 20
53.766952
 30
0.0
 10
341.851617
 20
53.409175
 30
0.0
  0
SPLINE
  5
236
100
AcDbEntity
  8
Visible
 62
7
100
AcDbSpline
 70
8
 71
3
 72
8
 73
4
 74
0
 40
0
 40
0
 40
0
 40
0
 40
1
 40
1
 40
1
 40
1
 10
341.851617
 20
53.409175
 30
0.0
 10
341.232477
 20
53.051398
 30
0.0
 10
340.851460
 20
52.390286
 30
0.0
 10
340.852282
 20
51.675208
 30
0.0
  0
SPLINE
  5
237
100
AcDbEntity
  8
Visible
 62
7
100
AcDbSpline
 70
8
 71
3
 72
8
 73
4
 74
0
 40
0
 40
0
 40
0
 40
0
 40
1
 40
1
 40
1
 40
1
 10
340.852282
 20
51.675208
 30
0.0
 10
340.851460
 20
50.960129
 30
0.0
 10
341.232477
 20
50.299017
 30
0.0
 10
341.851617
 20
49.941240
 30
0.0
  0
SPLINE
  5
238
100
AcDbEntity
  8
Visible
 62
7
100
AcDbSpline
 70
8
 71
3
 72
8
 73
4
 74
0
 40
0
 40
0
 40
0
 40
0
 40
1
 40
1
 40
1
 40
1
 10
341.851617
 20
49.941240
 30
0.0
 10
342.470756
 20
49.583463
 30
0.0
 10
343.233805
 20
49.583463
 30
0.0
 10
343.852945
 20
49.941240
 30
0.0
  0
SPLINE
  5
239
100
AcDbEntity
  8
Visible
 62
7
100
AcDbSpline
 70
8
 71
3
 72
8
 73
4
 74
0
 40
0
 40
0
 40
0
 40
0
 40
1
 40
1
 40
1
 40
1
 10
343.852945
 20
49.941240
 30
0.0
 10
344.472084
 20
50.299017
 30
0.0
 10
344.853102
 20
50.960129
 30
0.0
 10
344.852279
 20
51.675208
 30
0.0
  0
LWPOLYLINE
  5
23a
100
AcDbEntity
  8
Visible
 62
7
100
AcDbPolyline
 90
1
 70
1
 10
332.852288
 20
30.890589
 30
0.0
  0
SPLINE
  5
23b
100
AcDbEntity
  8
Visible
 62
7
100
AcDbSpline
 70
8
 71
3
 72
8
 73
4
 74
0
 40
0
 40
0
 40
0
 40
0
 40
1
 40
1
 40
1
 40
1
 10
365.636888
 20
39.675205
 30
0.0
 10
365.637710
 20
40.390284
 30
0.0
 10
365.256693
 20
41.051396
 30
0.0
 10
364.637553
 20
41.409173
 30
0.0
  0
SPLINE
  5
23c
100
AcDbEntity
  8
Visible
 62
7
100
AcDbSpline
 70
8
 71
3
 72
8
 73
4
 74
0
 40
0
 40
0
 40
0
 40
0
 40
1
 40
1
 40
1
 40
1
 10
364.637553
 20
41.409173
 30
0.0
 10
364.018414
 20
41.766950
 30
0.0
 10
363.255365
 20
41.766950
 30
0.0
 10
362.636225
 20
41.409173
 30
0.0
  0
SPLINE
  5
23d
100
AcDbEntity
  8
Visible
 62
7
100
AcDbSpline
 70
8
 71
3
 72
8
 73
4
 74
0
 40
0
 40
0
 40
0
 40
0
 40
1
 40
1
 40
1
 40
1
 10
362.636225
 20
41.409173
 30
0.0
 10
362.017086
 20
41.051396
 30
0.0
 10
361.636068
 20
40.390284
 30
0.0
 10
361.636890
 20
39.675205
 30
0.0
  0
SPLINE
  5
23e
100
AcDbEntity
  8
Visible
 62
7
100
AcDbSpline
 70
8
 71
3
 72
8
 73
4
 74
0
 40
0
 40
0
 40
0
 40
0
 40
1
 40
1
 40
1
 40
1
 10
361.636890
 20
39.675205
 30
0.0
 10
361.636068
 20
38.960126
 30
0.0
 10
362.017086
 20
38.299014
 30
0.0
 10
362.636225
 20
37.941237
 30
0.0
  0
SPLINE
  5
23f
100
AcDbEntity
  8
Visible
 62
7
100
AcDbSpline
 70
8
 71
3
 72
8
 73
4
 74
0
 40
0
 40
0
 40
0
 40
0
 40
1
 40
1
 40
1
 40
1
 10
362.636225
 20
37.941237
 30
0.0
 10
363.255365
 20
37.583461
 30
0.0
 10
364.018414
 20
37.583461
 30
0.0
 10
364.637553
 20
37.941237
 30
0.0
  0
SPLINE
  5
240
100
AcDbEntity
  8
Visible
 62
7
100
AcDbSpline
 70
8
 71
3
 72
8
 73
4
 74
0
 40
0
 40
0
 40
0
 40
0
 40
1
 40
1
 40
1
 40
1
 10
364.637553
 20
37.941237
 30
0.0
 10
365.256693
 20
38.299014
 30
0.0
 10
365.637710
 20
38.960126
 30
0.0
 10
365.636888
 20
39.675205
 30
0.0
  0
LWPOLYLINE
  5
241
100
AcDbEntity
  8
Visible
 62
7
100
AcDbPolyline
 90
1
 70
1
 10
344.852279
 20
51.675208
 30
0.0
  0
SPLINE
  5
242
100
AcDbEntity
  8
Visible
 62
7
100
AcDbSpline
 70
8
 71
3
 72
8
 73
4
 74
0
 40
0
 40
0
 40
0
 40
0
 40
1
 40
1
 40
1
 40
1
 10
181.620918
 20
316.830997
 30
0.0
 10
181.620918
 20
317.545529
 30
0.0
 10
181.239720
 20
318.205783
 30
0.0
 10
180.620918
 20
318.563048
 30
0.0
  0
SPLINE
  5
243
100
AcDbEntity
  8
Visible
 62
7
100
AcDbSpline
 70
8
 71
3
 72
8
 73
4
 74
0
 40
0
 40
0
 40
0
 40
0
 40
1
 40
1
 40
1
 40
1
 10
180.620918
 20
318.563048
 30
0.0
 10
180.002116
 20
318.920314
 30
0.0
 10
179.239720
 20
318.920314
 30
0.0
 10
178.620918
 20
318.563048
 30
0.0
  0
SPLINE
  5
244
100
AcDbEntity
  8
Visible
 62
7
100
AcDbSpline
 70
8
 71
3
 72
8
 73
4
 74
0
 40
0
 40
0
 40
0
 40
0
 40
1
 40
1
 40
1
 40
1
 10
178.620918
 20
318.563048
 30
0.0
 10
178.002116
 20
318.205783
 30
0.0
 10
177.620918
 20
317.545529
 30
0.0
 10
177.620918
 20
316.830997
 30
0.0
  0
SPLINE
  5
245
100
AcDbEntity
  8
Visible
 62
7
100
AcDbSpline
 70
8
 71
3
 72
8
 73
4
 74
0
 40
0
 40
0
 40
0
 40
0
 40
1
 40
1
 40
1
 40
1
 10
177.620918
 20
316.830997
 30
0.0
 10
177.620918
 20
316.116466
 30
0.0
 10
178.002116
 20
315.456212
 30
0.0
 10
178.620918
 20
315.098947
 30
0.0
  0
SPLINE
  5
246
100
AcDbEntity
  8
Visible
 62
7
100
AcDbSpline
 70
8
 71
3
 72
8
 73
4
 74
0
 40
0
 40
0
 40
0
 40
0
 40
1
 40
1
 40
1
 40
1
 10
178.620918
 20
315.098947
 30
0.0
 10
179.239720
 20
314.741681
 30
0.0
 10
180.002116
 20
314.741681
 30
0.0
 10
180.620918
 20
315.098947
 30
0.0
  0
SPLINE
  5
247
100
AcDbEntity
  8
Visible
 62
7
100
AcDbSpline
 70
8
 71
3
 72
8
 73
4
 74
0
 40
0
 40
0
 40
0
 40
0
 40
1
 40
1
 40
1
 40
1
 10
180.620918
 20
315.098947
 30
0.0
 10
181.239720
 20
315.456212
 30
0.0
 10
181.620918
 20
316.116466
 30
0.0
 10
181.620918
 20
316.830997
 30
0.0
  0
LWPOLYLINE
  5
248
100
AcDbEntity
  8
Visible
 62
7
100
AcDbPolyline
 90
1
 70
1
 10
365.636888
 20
39.675205
 30
0.0
  0
SPLINE
  5
249
100
AcDbEntity
  8
Visible
 62
7
100
AcDbSpline
 70
8
 71
3
 72
8
 73
4
 74
0
 40
0
 40
0
 40
0
 40
0
 40
1
 40
1
 40
1
 40
1
 10
132.824459
 20
249.829709
 30
0.0
 10
132.824459
 20
250.544240
 30
0.0
 10
132.443261
 20
251.204494
 30
0.0
 10
131.824459
 20
251.561760
 30
0.0
  0
SPLINE
  5
24a
100
AcDbEntity
  8
Visible
 62
7
100
AcDbSpline
 70
8
 71
3
 72
8
 73
4
 74
0
 40
0
 40
0
 40
0
 40
0
 40
1
 40
1
 40
1
 40
1
 10
131.824459
 20
251.561760
 30
0.0
 10
131.205657
 20
251.919026
 30
0.0
 10
130.443261
 20
251.919026
 30
0.0
 10
129.824459
 20
251.561760
 30
0.0
  0
SPLINE
  5
24b
100
AcDbEntity
  8
Visible
 62
7
100
AcDbSpline
 70
8
 71
3
 72
8
 73
4
 74
0
 40
0
 40
0
 40
0
 40
0
 40
1
 40
1
 40
1
 40
1
 10
129.824459
 20
251.561760
 30
0.0
 10
129.205657
 20
251.204494
 30
0.0
 10
128.824459
 20
250.544240
 30
0.0
 10
128.824459
 20
249.829709
 30
0.0
  0
SPLINE
  5
24c
100
AcDbEntity
  8
Visible
 62
7
100
AcDbSpline
 70
8
 71
3
 72
8
 73
4
 74
0
 40
0
 40
0
 40
0
 40
0
 40
1
 40
1
 40
1
 40
1
 10
128.824459
 20
249.829709
 30
0.0
 10
128.824459
 20
249.115178
 30
0.0
 10
129.205657
 20
248.454924
 30
0.0
 10
129.824459
 20
248.097658
 30
0.0
  0
SPLINE
  5
24d
100
AcDbEntity
  8
Visible
 62
7
100
AcDbSpline
 70
8
 71
3
 72
8
 73
4
 74
0
 40
0
 40
0
 40
0
 40
0
 40
1
 40
1
 40
1
 40
1
 10
129.824459
 20
248.097658
 30
0.0
 10
130.443261
 20
247.740393
 30
0.0
 10
131.205657
 20
247.740393
 30
0.0
 10
131.824459
 20
248.097658
 30
0.0
  0
SPLINE
  5
24e
100
AcDbEntity
  8
Visible
 62
7
100
AcDbSpline
 70
8
 71
3
 72
8
 73
4
 74
0
 40
0
 40
0
 40
0
 40
0
 40
1
 40
1
 40
1
 40
1
 10
131.824459
 20
248.097658
 30
0.0
 10
132.443261
 20
248.454924
 30
0.0
 10
132.824459
 20
249.115178
 30
0.0
 10
132.824459
 20
249.829709
 30
0.0
  0
LWPOLYLINE
  5
24f
100
AcDbEntity
  8
Visible
 62
7
100
AcDbPolyline
 90
1
 70
1
 10
181.620918
 20
316.830997
 30
0.0
  0
SPLINE
  5
250
100
AcDbEntity
  8
Visible
 62
7
100
AcDbSpline
 70
8
 71
3
 72
8
 73
4
 74
0
 40
0
 40
0
 40
0
 40
0
 40
1
 40
1
 40
1
 40
1
 10
116.027997
 20
10.132280
 30
0.0
 10
116.027997
 20
10.846811
 30
0.0
 10
115.646800
 20
11.507065
 30
0.0
 10
115.027997
 20
11.864331
 30
0.0
  0
SPLINE
  5
251
100
AcDbEntity
  8
Visible
 62
7
100
AcDbSpline
 70
8
 71
3
 72
8
 73
4
 74
0
 40
0
 40
0
 40
0
 40
0
 40
1
 40
1
 40
1
 40
1
 10
115.027997
 20
11.864331
 30
0.0
 10
114.409195
 20
12.221596
 30
0.0
 10
113.646800
 20
12.221596
 30
0.0
 10
113.027998
 20
11.864331
 30
0.0
  0
SPLINE
  5
252
100
AcDbEntity
  8
Visible
 62
7
100
AcDbSpline
 70
8
 71
3
 72
8
 73
4
 74
0
 40
0
 40
0
 40
0
 40
0
 40
1
 40
1
 40
1
 40
1
 10
113.027998
 20
11.864331
 30
0.0
 10
112.409195
 20
11.507065
 30
0.0
 10
112.027998
 20
10.846811
 30
0.0
 10
112.027998
 20
10.132280
 30
0.0
  0
SPLINE
  5
253
100
AcDbEntity
  8
Visible
 62
7
100
AcDbSpline
 70
8
 71
3
 72
8
 73
4
 74
0
 40
0
 40
0
 40
0
 40
0
 40
1
 40
1
 40
1
 40
1
 10
112.027998
 20
10.132280
 30
0.0
 10
112.027998
 20
9.417749
 30
0.0
 10
112.409195
 20
8.757495
 30
0.0
 10
113.027998
 20
8.400229
 30
0.0
  0
SPLINE
  5
254
100
AcDbEntity
  8
Visible
 62
7
100
AcDbSpline
 70
8
 71
3
 72
8
 73
4
 74
0
 40
0
 40
0
 40
0
 40
0
 40
1
 40
1
 40
1
 40
1
 10
113.027998
 20
8.400229
 30
0.0
 10
113.646800
 20
8.042964
 30
0.0
 10
114.409195
 20
8.042964
 30
0.0
 10
115.027997
 20
8.400229
 30
0.0
  0
SPLINE
  5
255
100
AcDbEntity
  8
Visible
 62
7
100
AcDbSpline
 70
8
 71
3
 72
8
 73
4
 74
0
 40
0
 40
0
 40
0
 40
0
 40
1
 40
1
 40
1
 40
1
 10
115.027997
 20
8.400229
 30
0.0
 10
115.646800
 20
8.757495
 30
0.0
 10
116.027997
 20
9.417749
 30
0.0
 10
116.027997
 20
10.132280
 30
0.0
  0
LWPOLYLINE
  5
256
100
AcDbEntity
  8
Visible
 62
7
100
AcDbPolyline
 90
1
 70
1
 10
132.824459
 20
249.829709
 30
0.0
  0
SPLINE
  5
257
100
AcDbEntity
  8
Visible
 62
7
100
AcDbSpline
 70
8
 71
3
 72
8
 73
4
 74
0
 40
0
 40
0
 40
0
 40
0
 40
1
 40
1
 40
1
 40
1
 10
254.417381
 20
249.829709
 30
0.0
 10
254.417381
 20
250.544240
 30
0.0
 10
254.036183
 20
251.204494
 30
0.0
 10
253.417381
 20
251.561760
 30
0.0
  0
SPLINE
  5
258
100
AcDbEntity
  8
Visible
 62
7
100
AcDbSpline
 70
8
 71
3
 72
8
 73
4
 74
0
 40
0
 40
0
 40
0
 40
0
 40
1
 40
1
 40
1
 40
1
 10
253.417381
 20
251.561760
 30
0.0
 10
252.798579
 20
251.919026
 30
0.0
 10
252.036183
 20
251.919026
 30
0.0
 10
251.417381
 20
251.561760
 30
0.0
  0
SPLINE
  5
259
100
AcDbEntity
  8
Visible
 62
7
100
AcDbSpline
 70
8
 71
3
 72
8
 73
4
 74
0
 40
0
 40
0
 40
0
 40
0
 40
1
 40
1
 40
1
 40
1
 10
251.417381
 20
251.561760
 30
0.0
 10
250.798579
 20
251.204494
 30
0.0
 10
250.417381
 20
250.544240
 30
0.0
 10
250.417381
 20
249.829709
 30
0.0
  0
SPLINE
  5
25a
100
AcDbEntity
  8
Visible
 62
7
100
AcDbSpline
 70
8
 71
3
 72
8
 73
4
 74
0
 40
0
 40
0
 40
0
 40
0
 40
1
 40
1
 40
1
 40
1
 10
250.417381
 20
249.829709
 30
0.0
 10
250.417381
 20
249.115178
 30
0.0
 10
250.798579
 20
248.454924
 30
0.0
 10
251.417381
 20
248.097658
 30
0.0
  0
SPLINE
  5
25b
100
AcDbEntity
  8
Visible
 62
7
100
AcDbSpline
 70
8
 71
3
 72
8
 73
4
 74
0
 40
0
 40
0
 40
0
 40
0
 40
1
 40
1
 40
1
 40
1
 10
251.417381
 20
248.097658
 30
0.0
 10
252.036183
 20
247.740393
 30
0.0
 10
252.798579
 20
247.740393
 30
0.0
 10
253.417381
 20
248.097658
 30
0.0
  0
SPLINE
  5
25c
100
AcDbEntity
  8
Visible
 62
7
100
AcDbSpline
 70
8
 71
3
 72
8
 73
4
 74
0
 40
0
 40
0
 40
0
 40
0
 40
1
 40
1
 40
1
 40
1
 10
253.417381
 20
248.097658
 30
0.0
 10
254.036183
 20
248.454924
 30
0.0
 10
254.417381
 20
249.115178
 30
0.0
 10
254.417381
 20
249.829709
 30
0.0
  0
LWPOLYLINE
  5
25d
100
AcDbEntity
  8
Visible
 62
7
100
AcDbPolyline
 90
1
 70
1
 10
116.027997
 20
10.132280
 30
0.0
  0
LWPOLYLINE
  5
25e
100
AcDbEntity
  8
Visible
 62
7
100
AcDbPolyline
 90
1
 70
1
 10
254.417381
 20
249.829709
 30
0.0
  0
LWPOLYLINE
  5
25f
100
AcDbEntity
  8
Visible
 62
7
100
AcDbPolyline
 90
2
 70
0
 10
166.620919
 20
331.830997
 30
0.0
 10
0.114568
 20
43.433532
 30
0.0
  0
LWPOLYLINE
  5
260
100
AcDbEntity
  8
Visible
 62
7
100
AcDbPolyline
 90
2
 70
0
 10
25.114569
 20
0.132273
 30
0.0
 10
0.114568
 20
43.433532
 30
0.0
  0
LWPOLYLINE
  5
261
100
AcDbEntity
  8
Visible
 62
7
100
AcDbPolyline
 90
2
 70
0
 10
25.114569
 20
0.132273
 30
0.0
 10
358.127272
 20
0.132273
 30
0.0
  0
LWPOLYLINE
  5
262
100
AcDbEntity
  8
Visible
 62
7
100
AcDbPolyline
 90
2
 70
0
 10
383.127275
 20
43.433532
 30
0.0
 10
358.127272
 20
0.132273
 30
0.0
  0
LWPOLYLINE
  5
263
100
AcDbEntity
  8
Visible
 62
7
100
AcDbPolyline
 90
3
 70
0
 10
383.127275
 20
43.433532
 30
0.0
 10
216.620919
 20
331.830997
 30
0.0
 10
166.620919
 20
331.830997
 30
0.0
  0
ENDSEC
  0
SECTION
  2
OBJECTS
  0
DICTIONARY
  5
C
330
0
100
AcDbDictionary
  3
ACAD_GROUP
350
D
  3
ACAD_MLINESTYLE
350
17
  0
DICTIONARY
  5
D
330
C
100
AcDbDictionary
  0
DICTIONARY
  5
1A
330
C
100
AcDbDictionary
  0
DICTIONARY
  5
17
330
C
100
AcDbDictionary
  3
STANDARD
350
18
  0
DICTIONARY
  5
19
330
C
100
AcDbDictionary
  0
ENDSEC
  0
EOF
